Guitaretab - guitar tabs
Song name
# A B C D E F G H I J K L M N O P Q R S T U V W X Y Z

Atomic Pink - Typical Guy tab

                               Atomic Pink
                              "Typical Guy"

Tabbed by: Mark Arvin Vidad
Email:arvin_vblue7@hotmail.com


Tuning: Standard
E A D G B E

Bass Intro:(Samantha)

G|---------------------------------|
D|---------------------------------|
A|---------------------------------|
E|-3333333-555555-7777777-8888888--|

Verse 1

e|------------------------------------------------------------------------------------|
B|------------------------------------------------------------------------------------|
G|------------------------------------------------------------------------------------|
D|-55-77-9-10-------------------------------------------------------------------------|
A|-55-77-9-10-------------------------------------------------------------------------|
E|-33-55-7-8--------------------------------------------------------------------------| X2

Chorus

e|------------------------------------------|
B|------------------------------------------|
G|------------------------------------------|
D|------------55555-77777-99999-1010101010--|
A|------------55555-77777-99999-1010101010--|
E|-x\\\\\\\\\-33333-55555-77777-8888888888--|
   (Pick Slide)

Guitar Interlude
[ Tab from: http://www.guitaretab.com/a/atomic-pink/76615.html ]
e|---------------------------------------------------------------------------------------|
B|----------13-12--13-12-----------------------------------------------------------------|
G|-12-12-12------12-----12---------------------------------------------------------------|
D|---------------------------------------------------------------------------------------|
A|---------------------------------------------------------------------------------------|
E|---------------------------------------------------------------------------------------|


Verse 2

e|-------------------------------|
B|-------------------------------|
G|-------------------------------|
D|-55555-77777-99999-1010101010--|
A|-55555-77777-99999-1010101010--|
E|-33333-55555-77777-8888888888--|
X2

Guitar Solo(Susan)
  (Tapping)
e|-12-3h5p3-12-3h5p3-12-3h5p3-12-3h5p3-12-3h5p3-12-3h5p3--15----------------|
B|-----------------------------------------------------------17b-15-17b-15--|
G|--------------------------------------------------------------------------|
D|--------------------------------------------------------------------------|
A|--------------------------------------------------------------------------|
E|--------------------------------------------------------------------------|

e|-----------------------------------------------------------------------|
B|-17b-17b-15-17b--------------------------------------------------------|
G|----------------15b-15p13-15-15p13-17b-17b-17b-17b-17b-15-15-15-15-15--|
D|-----------------------------------------------------------------------|
A|-----------------------------------------------------------------------|
E|-----------------------------------------------------------------------|

e|----------------------------------------|
B|----------------------------------------|
G|-17b-17b-17b-17b-17b-15-15-15-15-15-12--|
D|----------------------------------------|
A|----------------------------------------|
E|----------------------------------------|
The very first AP tab ever!!

http://www.atomicpinkrocks.com/
×
Typical Guy