Atomic Tom - Take Me Out tab

Standard Tuning

Verse 1
e----------------------------5~---5-----5~---5~-----5-------5-----|
b-----------------------------------------------------7~----------|
g---6-7~-------6-7~----6-7~---------6~------------7-----------6~--|
d-7----------7-------7--------------------------------------------|
a-----------------------------------------------------------------|
e-----------------------------------------------------------------|

Chorus
e---------------------------------------|
b---------------------------------------|
g-4444-777------------77777777----------| 2x
d-4444-777-5555555555-77777777-44444444-|
a-2222-555-5555555555-55555555-44444444-|
e----------3333333333----------22222222-|

e-------------------------------------|
b-------------------------------------|
g-44444444----------77777777----------|
d-44444444-77777777-77777777-55555555-|
a-22222222-77777777-55555555-55555555-|
e----------55555555----------33333333-|

e--------------|
b--------------|
g-4444-777-----|
d-4444-777-5~--|
a-2222-555-5~--|
e----------3~--|

Verse 2
e----------------------14-----------------------------------------------|
b-------------------------15----17-15~----------------------------------|
g---6-7~----6-7~-------------14---------11----14~--12-11-----------14~--|
d-7-------7--------------------------------12------------12--14-12------|
a-----------------------------------------------------------------------|
e-----------------------------------------------------------------------|

Chorus

Pretty much straightforward rest of way.  The solo is hard to hear and hard to tab from 
an acoustic.
I'll try and figure it out later on.
Tap to rate this tab
 
# A B C D E F G H I J K L M N O P Q R S T U V W X Y Z