Song name
# A B C D E F G H I J K L M N O P Q R S T U V W X Y Z

Atoms For Peace - Before Your Very Eyes tab

This tab may not be 100% correct. Please email me if you have any corrections: 
carnifax23@hotmail.com


e|---3----3--3---6-6-5-5-3----|
B|---3----3--3----------------|
G|---3----3--3----------------|
D|---5----5--5----------------|     (x2)
A|---5----5--5----------------|
E|---3----3--3----------------|


e|---1----1--1---5-5-3-3-1----|
B|---1----1--1----------------|
G|---2----2--2----------------|
D|---3----3--3----------------|     (x2)
A|---3----3--3----------------|
E|---1----1--1----------------|


Repeat the Gm and F riffs. Then..

e|---0----0--0---3-3----------|
B|---0----0--0--------3-3-4---|
G|---1----1--1----------------|
D|---2----2--2----------------| 
A|---2----2--2----------------|
E|---0----0--0----------------|


e|---x----x--x----------------|
B|---3----3--3---6-6-5-5-3----|
G|---2----2--2----------------|
D|---2----2--2----------------|     
A|---0----0--0----------------|
E|----------------------------|


Hope this helps. :)
Tap to rate this tab
# A B C D E F G H I J K L M N O P Q R S T U V W X Y Z