Song name
# A B C D E F G H I J K L M N O P Q R S T U V W X Y Z

Atoms For Peace - Ingenue tab

/) Slide Up  (\) Slide Down  (h) Hammer On  (p) Pull Off  (b) Bend (r) Release (v) Vibrato

E|-----------------------------------------------------------------------|
B|--11--10--8-----------------------11--10--8----------------------------|
G|-----------------------------------------------------------------------|
D|-----------------12-----10-----8----------------5-----8p7-----7--------|
A|-----------------------------------------------------------------------|
E|-------------10------8------6----------------3-----6-------5-----3--3--|



E|----------------------------------------------------------------------|
B|-----------------------------11--10--8--------------------------------|
G|-------------------------12-------------------------------------------|
D|------8--8------7---------------------------12-----10-----8-----5-----|
A|--10--------10-----8--5-----------------------------------------------|
E|----------------------------------------10------8------6-----3--------|



E|--------------------------------------------------------------------|
B|11-10-8----------------------11--10--8--6---------------------------|
G|-------------3--3--2--0---12-------------------2------0-----0-------|
D|------------------------3----------------------3----2---------------|
A|--------------------------------------------------3-----------------|
E|----------3----------------------------------1------------3---------|
Tap to rate this tab
 
# A B C D E F G H I J K L M N O P Q R S T U V W X Y Z