Song name
# A B C D E F G H I J K L M N O P Q R S T U V W X Y Z

Atoms For Peace - Stuck Together Pieces tab

(/) Slide Up  (\) Slide Down  (h) Hammer On  (p) Pull Off  (b) Bend (r) Release (v) Vibrato

Did a cover to this song so you can kinda follow along if you need with help with 
certain timing issues or strumming patterns when playing the song.

Video: http://www.youtube.com/watch?v=cwM3VYvt2lY


Variation of repeating bass line for guitar (hit notes in funky percussive manner)

E|------------------------------------------------------|
B|------------------------------------------------------|
G|------------------------------------------------------|
D|--9-9---11-11----7-7---9-9----------------------------|
A|-------------------------------7-7--9-----------------|
E|---------------------------------------9-(\)-2--------|

(BRIDGE)

(...our stuck together pieces....), (...why be rain when you could be sun...)
E|------------------------------------------------------------------------------------|
B|------------------------------------------------------------------------------------|
G|----------9------9--------9--------9--------9--------9-------9---------9------------|
D|------------------------------------------------------------------------------------|
A|------------------------------------------------------------------------------------|
E|-(/) 9---9------9-------9--------9-------9--------9-------9--------9----------------|

(our stuck together pieces...), (...why tie yourself to anyone...)
E|----------------------------------------------------------------------------------|
B|----------10-----10------10------10------10-----10------12-------10---------------|
G|----------------------------------------------------------------------------------|
D|----------------------------------------------------------------------------------|
A|--(/) 9--9-----9------9---------9------9-------9------9--------9------------------|
E|----------------------------------------------------------------------------------|

Repeat Bridge 4x......then go into

CHORUS

 Strumming pattern like in video

     Bm     F#m    Bm    C#m
E|---------------x----x-----|
B|----7----10----x----x-----|
G|----7----11----7----9-----|
D|----9----11----9----11----|
A|----9----9-----9----11----|
E|----7----9-----7----9-----|   Reapeat (2x).... then go into

      Bm    F#m     C#m     Bm
E|----x----x-----x------x--------|
B|----7----10----9------9--------|
G|----7----11----9------9--------|
D|----9----11----11-----11-------|
A|----9----9-----11-----11-------|
E|----7----9-----9------7--------|


Back to bass line

E|------------------------------------------------------------|
B|------------------------------------------------------------|
G|------------------------------------------------------------|
D|--9-9---11-11----7-7---9-9----------------------------------|
A|-------------------------------7-7--9-----------------------|
E|---------------------------------------9-(\)-2--------------|      (Repeat 2x)



E|-------------------------------------|
B|-------------------------------------|
G|--9-9---11-11------------------------|
D|--------------------9-9---11-11------|
A|-------------------------------------|
E|-------------------------------------|

E|---------------------------------------|
B|---------------------------------------|
G|---------------------------------------|
D|--7--9-----7------9--7------9----------|
A|---------------------------------------|
E|---------------------------------------|
(Repeating this little riff till the chorus comes in again.

Some variations in this riff are like this but quick

E|---------------------------------------|
B|---------------------------------------|
G|---------------------------------------|
D|--9--11-----9------11--9------11-------|
A|---------------------------------------|
E|---------------------------------------|

or

E|---------------------------------------|
B|---------------------------------------|
G|---------------------------------------|
D|---------------------------------------|
A|--7--9-----7------9--7------9----------|
E|---------------------------------------|

REPEAT CHORUS

then REPEAT BRIDGE

little synth outro

E|-------------------------------------------------|
B|---5-----5-----5-----5-----5-----5-----5---------|
G|-----6-----6-----6-----6-----6-----6-----6-------|
D|-------------------------------------------------|
A|-------------------------------------------------|
E|-------------------------------------------------|

E|------------------------------------------------------------------------------|
B|---------7--------7---------7--------7--------7-------------------------------|
G|------------------------------------------------------------------------------|
D|---7(p)6----7(p)6-----7(p)6-----7(p)6----7(p)6--------------------------------|
A|------------------------------------------------------------------------------|
E|------------------------------------------------------------------------------|
Tap to rate this tab
# A B C D E F G H I J K L M N O P Q R S T U V W X Y Z