Song name
# A B C D E F G H I J K L M N O P Q R S T U V W X Y Z

Atoms For Peace - Judge Jury And Executioner tab

-------------------------------------------------------------------------------
                 Atoms for Peace - Judge Jury and Executioner
-------------------------------------------------------------------------------
Tabbed by: Me
E-mail:

Tuning: DADGAD (is not Open D)

Quite straightforward song for guitar. Thom's guitar playing style is quite
loose, so don't take all notes of the tab (especially the 0's) too literally.

Verse
D|---------0---------------------0--------------------0------------------0---|
A|-12---0-----0-----10\8--8---0-----0-----7\5--5---0-----0-----3--0---0------|
G|---------------------------------------------------------------------------|
D|----0----------0----------0----------0---------0----------0-------0-------0|
A|---------------------------------------------------------------------------|
D|-12---------------10\7--7---------------5\3--3---------------2--0----------|

Chorus
D|---------------------------------------------------------------------------|
A|---------------------------------------------------------------------------|
G|---------------------------------------------------------------------------|
D|-10----8--6----5--3----1--3------------------------------------------------|
A|-10----8--6----5--3----1--3------------------------------------------------|
D|-10----8--6----5--3----1--3------------------------------------------------|

Bridge (Just randomly pluck the D and A strings after you 
struck the 'chords' in the bar below)
D|---------------------------------------------------------------------------|
A|-8----7-8-----7-10-----8\7--5----------------------------------------------|
G|---------------------------------------------------------------------------|
D|-0-------------------------------------------------------------------------|
A|---------------------------------------------------------------------------|
D|------7-8-----7-10-----8\7--5----------------------------------------------|


************************************

| /   slide up
| \   slide down
| h   hammer-on
| p   pull-off
| ~   vibrato
| +   harmonic
| x   Mute note
| b   Bend
| pb  Pre-bend
| br  Bend release
| pbr Pre-bend release
| brb Bend release bend

************************************
Tap to rate this tab
 
# A B C D E F G H I J K L M N O P Q R S T U V W X Y Z