Song name
# A B C D E F G H I J K L M N O P Q R S T U V W X Y Z

Atomship - Down Here tab

Help us improve GuitareTab! Take a short survey!
Hey, I watched them perform this song, and watched it over and over until I got the 
PERFECT. So, enjoy.... the best band ever! ;)

The song is made up of 4 chords....

3 0 2 3
0 0 3 3
0 0 2 2
0 2 0 0
2 2 0 0
3 0 0 0

Chorus 1:

--------------------------------0------------|
-------3-3------------3-3-------------3------|
-----0-----0--------0-----0-------0-----0----|
---2--------------2---------2-------2-----2--|
-3--------------3-------------3--------------|
---------------------------------------------|

Chorus 2:

-----------------3--------------|
-------0-0-------------0--------|
-----------0-------0-----0------|
-----0-------0-------0-----0----|
---2-----------2-------------2--|
-3------------------------------|
Related for Down Here tab