Song name
# A B C D E F G H I J K L M N O P Q R S T U V W X Y Z

Atomsko Skloniste - Olujni Mornar tab

Highlighted       Show chord diagrams
-------------------------------------------------------------------------------
			  Olujni Mornar - Atomsko Skloniste
-------------------------------------------------------------------------------
Tabbed by: gwyder.
Email: mirzamerdovic@gmail.com.

Tuning: EADGBE

Intro:
e|--------------------------------------------------------------------------|
B|--------------------------------------------------------------------------|
G|-------------------4-2---2-4-4p-4-2-2-------------------------------------|
D|-2-2-2---2-5-----------5----------2-7-5-----------------------------------|
A|-0-0-0---0-3-3-5-5----------------0-5-3-----------------------------------|
E|-------3-----1-3-3--------------------------------------------------------|

Verse:
A              C
Moje je more i moj je brod
G                 C      A    D, C
Moji su vjetrovi, kise i oluje
A              C
Tebi ostavljam novi krov
G               C        A      D, C
Novi asfalt i prikljucak struje.

Chorus:
E        D     C    E, D, C
Obala je pola-pola
E      D         C   E, D, C
Ali ti poklanjam sve
E        D     C   E, D, C
Obala je pola-pola
E      D         C
Ali ti poklanjam sve.

Verse:
Moje je more, moj je brod
I smrt ce moja biti tajna za te
Ostavljam ti francuski krevet, ne placi
Jos uvijek mislim, mislim na te.

Chorus:
Obala je pola-pola
Ali ti poklanjam sve
Obala je pola-pola
Ali ti poklanjam sve.

Solo:

Chorus:
Obala je pola-pola
Ali ti poklanjam sve
Obala je pola-pola
Ali ti poklanjam sve.

Verse:
Moje je more i moj je brod
Moji su vjetrovi, kise i oluje
Tebi ostavljam novi krov
Novi asfalt i prikljucak struje.

Verse:
Moje je more, moj je brod
I smrt ce moja biti tajna za te
Ostavljam ti francuski krevet, ne placi
Jos uvijek mislim, mislim na te.

Verse:
Moje je more i moj je brod
Tap to rate this tab
# A B C D E F G H I J K L M N O P Q R S T U V W X Y Z