Guitaretab - guitar tabs
Song name
# A B C D E F G H I J K L M N O P Q R S T U V W X Y Z

Atreyu - The Squeeze tab

ATREYU- The Squeeze
tabbed by syn g

Both Guitars In Drop C   C G C F A D


This is only the guitar 1 tab. I am working on guitar 2 so i will be back with 
If there are any errors please leave a comment. Enjoy this great song!

Legend
* pinch harmonic
/ slide down fretboard
. palm mute
~ vibrato
p pull off
h hammer on
bend as needed

Gtr 1

Intro (0:12)

C--------------------------------|
G--------------------------------|
C--------------------------------|
F--0-----------------------------|
A--0-----------------------5-3---|
D--0-00000000--7-6-7-8-7-6-5-3---|
     ........              . .
                                             Play harmonic first time only
Verse (0:19)
C-------------------------------------------|-------|
G-------------------------------------------|-------|
C-------------------------------------------|-------|
F--------------------------------5-5-4------|-------|
A--8/-----------------8/---------6-6-5-6-5-3|-------|
D-----0-00-0-000-0-000---00-0-000------6-5-3|---3*--|
        ..   ...   ...   ..   ...

Pre Chorus (0:55)
C---------------------------|
G---------------------------|
C---------------------------|
F--8-7--5-7~-5-7-6-5-7-6-5--|
A-------------------------8-|
D---------------------------|

Chorus (0:59)
C-----------------------------------------------------------------------|
G-----------------------------------------------------------------------|
C--14-14--14-14--14-14--14-14--14-14--14-14--14-14--14-14--14-10-10-10--|
F--x--x---x--x---x--x---x--x---x--x---x--x---x--x---x--x---x--x--x--x---|
A--12-12--12-12--12-12--12-12--12-12--12-12--12-12--12-12--12-8--8--8---|
D-----------------------------------------------------------------------|
          .  .           .  .         .  .          .  .

C-------------------------------------------------------|
G-------------------------------------------------------|
C--10-----12-----14-----15-----14-----17-----19-----17--|
F--x--x4--x--x4--x--x4--x--x4--x--x4--x--x4--x--x4--x---|        x2
A--8------10-----12-----13-----12-----15-----17-----15--|
D-------------------------------------------------------|

Verse #2 (1:37)
C-------------------------------------------------|
G-------------------------------------------------|
C--12---12-10----10~---17~--17-15----17-15----15--|
F-------------12------------------17-------17-----|
A-------------------------------------------------|
D-------------------------------------------------|

Pre Chorus (1:47)
Chorus (1:51)

Bridge (2:16)
C---1--0--1-----1--0--1----------3--1-------------1--0--|
G--------------------------3----------------3-----------|
C-----2-----------2-----------2----------------2--------|
F--0-------0-0----------0--------------0-0--------------|   x4
A-------------------------------------------------------|
D-------------------------------------------------------|

Solo
C-------------------------------------------------|
G--------------Wammy Dive-------------------------|
C--5-5-5-3-5-3*\---------------------------77--7~-|
F---------------\------------77557788775578-------|
A----------------\---------55---------------------|
D-----------------\-------------------------------|
                           ................
[ Tab from: http://www.guitaretab.com/a/atreyu/106893.html ]
C--22-20-18-20-22-20-18-20-22-20-18-20-22-20-18-20-22-20-18-20-22-----|
G-----------------------------------------------------------------18--|
C---------------------------------------------------------------------|
F---------------------------------------------------------------------|
A---------------------------------------------------------------------|
D---------------------------------------------------------------------|

C--------------------------------------|
G--18-17-15------15--------------------|
C-----------17-18--18-17-15--15----15--|
F------------------------------18--17--|
A--------------------------------------|
D--------------------------------------|

C----------------------------------------------------|
G-----15*--------------------------------------------|
C--15-----14-12-14--12-10-12---15--17-15-------------|
F----------------------------14--14------15-----10*--|
A--------------------------------------------13------|
D----------------------------------------------------|

C----------------------------------|
G--------------11-10----11-10------|
C--------------------10-------10/--|
F--8-7---8-7-----------------------|
A-----9-----9----------------------|
D----------------------------------|

C---------------------------------------------------------|
F---------------------------------------------------------|
C--------------------------------------------14-15-14-----|
F--7-8-7---9-10-9----11-12-11----12-13-12-------------15--|
A--------9--------10----------11----------12--------------|
D---------------------------------------------------------|

C----------------------------------------|
G----------------------------------------|
C--16-17-16----18-19-18-----19-20-19-----|
F-----------17----------19-----------20--|
A----------------------------------------|
D----------------------------------------|

C----------------------------------------|
G-----------------18-17-15----15---------|
C--17-17-17-17-17----------17----17--17--|
F----------------------------------------|
A----------------------------------------|
D----------------------------------------|

C------------------------------------------------------------------------------------------|
G--15-17----17-h18-p17-p15--17-h18-p17-p15--17-h18-p17-p15--17-h18-p17-p15--17-h18-p17-p15-|
C------------------------------------------------------------------------------------------|
F------------------------------------------------------------------------------------------|
A------------------------------------------------------------------------------------------|
D------------------------------------------------------------------------------------------|

C--18-17-18-17-15-17--18-17-18-17-15-17--18-17-18-17-15-17--18-17-18-17-15-17--|
G------------------------------------------------------------------------------|
C------------------------------------------------------------------------------|
F------------------------------------------------------------------------------|
A------------------------------------------------------------------------------|
D------------------------------------------------------------------------------|

C--18-17-18-17-15-17--15-18-20--|
G-------------------------------|
C-------------------------------|
F-------------------------------|
A-------------------------------|
D-------------------------------|

C-----------------------------------------------------------------------|
G-----------------------------------------------------------------------|
C--14-14--14-14--14-14--14-14--14-14--14-14--14-14--14-14--14-10-10-10--|
F--x--x---x--x---x--x---x--x---x--x---x--x---x--x---x--x---x--x--x--x---|
A--12-12--12-12--12-12--12-12--12-12--12-12--12-12--12-12--12-8--8--8---|
D-----------------------------------------------------------------------|
          .  .           .  .         .  .          .  .
Chorus
Then Play Verse #1 and you are done. Enjoy!!!
Related for The Squeeze tab
Advertisement will be closed in 10 seconds