Song name
# A B C D E F G H I J K L M N O P Q R S T U V W X Y Z

Atreyu - Doomsday tab

DOOMSDAY by Atreyu

This song is tuned to drop c, a whole step down
From bottom to top –cgcfad
I got part of this tab from guitar world, the rest I came up with


INTRO
|---------------------------------------------------------|
|---------------------------------------------------------|
|---------------------------------------------------------|
|-0--------------3-------------3-------------30506--------|
|-0—-0-0-0-000-0-3-0-0-0-000-0-3-0-0-0-000-0-30506-0-0-0--|
|-0--0-0-0-000-0-3-0-0-0-000-0-3-0-0-0-000-0-30506-0-0-0--|
PM   * * * *** *   * * * *** *   * * * *** *  * *  * * *

|----------------------------------------------------|
|----------------------------------------------------|
|----------------------------------------------------|
|-0--------------30-------------30-------------3-5-6-|
|-0—-0-0-0-000-0-30-0-0-0-000-0-30-0-0-0-000-0-3-5-6-|
|-0—-0-0-0-000-0-30-0-0-0-000-0-30-0-0-0-000-0-3-5-6-|
PM   * * * *** *    * * * *** *    * * * *** *

INTRO SOLO

|---------------------8-7-6-5-------------------|
|-b8*-(8)(6)-8*\(horse dive)--8-7-6-5-4-3-2-2*--|
|-----------------------------------------------|
|-----------------------------------------------|
|-----------------------------------------------|
|-----------------------------------------------|

  T   T        T         T        T   T      T    T        T
|12-8-12-8-7-5-12-8-7-5-15-8-7-5-12-8-12-8-7-5-12-8-12-8-7-5-17-3-7-5-|
|---------------------------------------------------------------------|
|---------------------------------------------------------------------|
|---------------------------------------------------------------------|
|---------------------------------------------------------------------|
|---------------------------------------------------------------------|

|-------------------------5-7-8--------------------|
|-------------------5-7-8-------6---8---9----------|
|-------------4-5-7------------b8-b10-b11----------|
|-------4-5-7------------------------------6-5-3-0-|
|-4-5-7------------------------------------6-5-3-0-|
|------------------------------------------6-5-3-0-|

Rhythm for solo

|----------------------------------------------------------------|
|----------------------------------------------------------------|
|----------------------------------------------------------------|
|-0--------------3-------------3-------------3-----5----6-5-3-0--|
|-0—-0-0-0-000-0-3-0-0-0-000-0-3-0-0-0-000-0-3-0-0-5-00-6-5-3-0--|
|-0—-0-0-0-000-0-3-0-0-0-000-0-3-0-0-0-000-0-3-0-0-5-00-6-5-3-0--|
PM   * * * *** *   * * * *** *   * * * *** *   * *   **

|---------------------------------------------------------------|
|---------------------------------------------------------------|
|---------------------------------------------------------------|
|-0--------------3-------------3-------------3-5-6----6-5-3-0---|
|-0—-0-0-0-000-0-3-0-0-0-000-0-3-0-0-0-000-0-3-5-6-00-6-5-3-0---|
|-0—-0-0-0-000-0-3-0-0-0-000-0-3-0-0-0-000-0-3-5-6-00-6-5-3-0---|
PM   * * * *** *   * * * *** *   * * * *** *       **

VERSE 1 (play 4 times)

|---------------------------------------------------------------|
|---------------------------------------------------------------|
|---------------------------------------------------------------|
|-0--------------3-------------3-------------3-----5----6-5-3-0-|
|-0—-0-0-0-000-0-3-0-0-0-000-0-3-0-0-0-000-0-3-0-0-5-00-6-5-3-0-|
|-0—-0-0-0-000-0-3-0-0-0-000-0-3-0-0-0-000-0-3-0-0-5-00-6-5-3-0-|
PM   * * * *** *   * * * *** *   * * * *** *   * *   **
Last time
|-------------------|
|-------------------|
|-------------------|
|-6-5-3-5---6-5-3-0-|
|-6-5-3-5---6-5-3-0-|
|-6-5-3-5---6-5-3-0-|

CHORUS (play 4 times)
                                   After 2 times do this
|-----------------------------------|-----------------------------------|
|-----------------------------------|-----------------------------------|
|------------------5-5-5------------|-----------------------------------|
|-7-7-7-3-3-3-3333-3-3-3-5-5-5-5555-|-7-7-7-3-3-3-3333-3-3-3-5-5-5-5555-|
|-5-5-5-1-1-1-1111-------3-3-3-3333-|-5-5-5-1-1-1-1111-3-3-3-3-3-3-3333-|
|-----------------------------------|------------------3-3-3------------|

PRE VERSE SOLO
|---------------b21------------------------------|
|-b21-b21b21-17----------------------------------|
|---------------------17-b19-b19-19-17-----------|
|--------------------------------------19-17-----|
|--------------------------------------------15~-|
|------------------------------------------------|


RHYTHM FOR PRE VERSE SOLO
|----------------------------------------------------------------|
|----------------------------------------------------------------|
|----------------------------------------------------------------|
|-0--------------3-------------3-------------3-----5----6-5-3-0--|
|-0—-0-0-0-000-0-3-0-0-0-000-0-3-0-0-0-000-0-3-0-0-5-00-6-5-3-0--|
|-0—-0-0-0-000-0-3-0-0-0-000-0-3-0-0-0-000-0-3-0-0-5-00-6-5-3-0--|
PM   * * * *** *   * * * *** *   * * * *** *   * *   **

VERSE 2

|----------------------------------------------------------------|
|----------------------------------------------------------------|
|----------------------------------------------------------------|
|-0--------------3-------------3-------------3-----5----6-5-3-0--|
|-0—-0-0-0-000-0-3-0-0-0-000-0-3-0-0-0-000-0-3-0-0-5-00-6-5-3-0--|
|-0—-0-0-0-000-0-3-0-0-0-000-0-3-0-0-0-000-0-3-0-0-5-00-6-5-3-0--|
PM   * * * *** *   * * * *** *   * * * *** *   * *   **


|---------------------------------------------------------------|
|---------------------------------------------------------------|
|---------------------------------------------------------------|
|-0--------------3-------------3-------------3-5-6----6-5-3-0---|
|-0—-0-0-0-000-0-3-0-0-0-000-0-3-0-0-0-000-0-3-5-6-00-6-5-3-0---|
|-0—-0-0-0-000-0-3-0-0-0-000-0-3-0-0-0-000-0-3-5-6-00-6-5-3-0---|
PM   * * * *** *   * * * *** *   * * * *** *


|--------------------------------------------------------------|
|--------------------------------------------------------------|
|--------------------------------------------------------------|
|-0--------------3-------------3-------------3-5-6----6-5-3-0--|
|-0—-0-0-0-000-0-3-0-0-0-000-0-3-0-0-0-000-0-3-5-6-00-6-5-3-0--|
|-0—-0-0-0-000-0-3-0-0-0-000-0-3-0-0-0-000-0-3-5-6-00-6-5-3-0--|
PM   * * * *** *   * * * *** *   * * * *** *

Last time
|-------------------|
|-------------------|
|-------------------|
|-6-5-3-5---6-5-3-0-|
|-6-5-3-5---6-5-3-0-|
|-6-5-3-5---6-5-3-0-|

Chorus 2 (play 4 times)
                                   After 2 times do this
|-----------------------------------|-----------------------------------|
|-----------------------------------|-----------------------------------|
|------------------5-5-5------------|-----------------------------------|
|-7-7-7-3-3-3-3333-3-3-3-5-5-5-5555-|-7-7-7-3-3-3-3333-3-3-3-5-5-5-5555-|
|-5-5-5-1-1-1-1111-------3-3-3-3333-|-5-5-5-1-1-1-1111-3-3-3-3-3-3-3333-|
|-----------------------------------|------------------3-3-3------------|

Bridge

|------------------------------------------------------------------|
|------------------------------------------------------------------|
|------------------------------------------------------------------|
|------------------------------------------------------------------|
|--------12-10------------12-10------------------------------------|
|-12—-12--------12-11-—11--------12-10-10-10-10-9-10/12-9-9/7-5/7--|

|----------------------------------------------------------------|
|----------------------------------------------------------------|
|--------14-12------------14-12----------------------------------|
|-12—-12--------12-11—-11-------12-10-10-10-10-9-10/12-9-9-7-5-7-|
|----------------------------------------------------------------|
|----------------------------------------------------------------|

Chorus 3 (play 4 times)
                                   After 2 times do this
|-----------------------------------|-----------------------------------|
|-----------------------------------|-----------------------------------|
|------------------5-5-5------------|-----------------------------------|
|-7-7-7-3-3-3-3333-3-3-3-5-5-5-5555-|-7-7-7-3-3-3-3333-3-3-3-5-5-5-5555-|
|-5-5-5-1-1-1-1111-------3-3-3-3333-|-5-5-5-1-1-1-1111-3-3-3-3-3-3-3333-|
|-----------------------------------|------------------3-3-3------------|

OUTRO

|-----------------------------------------------------------|
|-----------------------------------------------------------|
|-----------------------------------------------------------|
|-0--------------3-------------30-------------3-5-6---------|
|-0—-0-0-0-000-0-3-0-0-0-000-0-30-0-0-0-000-0-3-5-6---------|
|-0—-0-0-0-000-0-3-0-0-0-000-0-30-0-0-0-000-0-3-5-6---------|
PM   * * * *** *   * * * *** *    * * * *** *

|-----------------------------------------------------------|
|-----------------------------------------------------------|
|-----------------------------------------------------------|
|-0--------------3-------------3-------------3----6-5-3-0---|
|-0—-0-0-0-000-0-3-0-0-0-000-0-3-0-0-0-000-0-3-00-6-5-3-0---|
|-0—-0-0-0-000-0-3-0-0-0-000-0-3-0-0-0-000-0-3-00-6-5-3-0---|
PM   * * * *** *   * * * *** *   * * * *** *   **

|----------------------------------------------------------|
|----------------------------------------------------------|
|----------------------------------------------------------|
|-0--------------3-------------30-------------3-5-6--------|
|-0—-0-0-0-000-0-3-0-0-0-000-0-30-0-0-0-000-0-3-5-6--------|
|-0—-0-0-0-000-0-3-0-0-0-000-0-30-0-0-0-000-0-3-5-6--------|
PM   * * * *** *   * * * *** *    * * * *** *
Tap to rate this tab
# A B C D E F G H I J K L M N O P Q R S T U V W X Y Z