Song name
# A B C D E F G H I J K L M N O P Q R S T U V W X Y Z

Atreyu - Lose It tab

This is probably my favorite song on the album right now.

"Lose It" by Atreyu
i know there is two guitars, but ive only got one down.
 
 the intro

|----------------------------------------|
|--------5-6-----------------------------|4X
|--5-7-------5-7-------------------------|
|------7---------7-----------------------|
|----------------------------------------|
|----------------------------------------|

|----------------------------------------|
|---------10-11--------------------------|
|-9-10----------9-10---------------------|
|------12------------12------------------|4X
|----------------------------------------|
|----------------------------------------|

 the verse (both verses)
 these chords sound good to me

|-2-----1---0-------2-----1---0-----------|
|-3-----3---1-------3-----3---1-----------|
|-2-----3---0-------2-----3---0-----------|
|-0-----3---2-------0-----3---2-----------|
|-0-----1---3-------0-----1---3-----------|
|-0-----------------0---------------------|

 the chorus

|----------------------------------------|
|----------------------------------------|
|-------1414141414--------1414141414-----|
|-0000--xxxxxxxxxx--0000--xxxxxxxxxx-----|
|-0000--1212121212--0000--1212121212-----|
|-0000--------------0000-----------------|

|----------------------------------------|
|----------------------------------------|
|-333-555-1010101010-777-999-1010101010--|
|-xxx-xxx-xxxxxxxxxx-xxx-xxx-xxxxxxxxxx--|repeat all of chorus 2X
|-111-333-8888888888-555-777-8888888888--|
|----------------------------------------|

 the verse
 the chorus
 the breakdown

after all of the sound effect things
|----------------------------------------|
|----------------------------------------|
|----------------------------------------|
|-0000000000000000-8888888888888888------|
|-0000000000000000-8888888888888888------|
|-0000000000000000-8888888888888888------|
  ................ ...............

|----------------------------------------|
|----------------------------------------|
|----------------------------------------|
|-1010101010101010-7777777777777777------|
|-1010101010101010-7777777777777777------|
|-1010101010101010-7777777777777777------|
  ................ ................

 the chorus
 the intro

 end with some

|----------|
|----------|
|----------|
|-----0-0--|
|-000-0-0--|
|-000-0-0--|
  ...

thats the tab...yay...
Tap to rate this tab
 
# A B C D E F G H I J K L M N O P Q R S T U V W X Y Z