Guitaretab - guitar tabs
Song name
# A B C D E F G H I J K L M N O P Q R S T U V W X Y Z
Home / A / Atreyu / Blow tab

Atreyu - Blow tab

This is an amazing song right here.
Drop C

Intro Guitar pt.1
d|---------------------------------------------------------------------|
a|---------------------------------------------------------------------|
f|---------7\5-55-44445--------7\5-55-444\22--------7\5-55-797-5-4-2---|
c|---------7\5-55-55555--------7\5-55-555\33--------7\5-55-777-5-5-3---|
g|--0-0000--------------0-0000---------------0-0000--------------------|
c|---------------------------------------------------------------------|
    . ....              . ....               . ....
Intro Guitar 1 Pt.2
d|---------------------------------------------------------------------------|
a|---------------------------------------------------------------------------|
f|---------7\5-55-44445--------7\5-55-444\22--------7\5-55-797-5-4-4-22-5-44-|
c|---------7\5-55-55555--------7\5-55-555\33--------7\5-55-777-5-5-5-33-5-55-|
g|--0-0000--------------0-0000---------------0-0000--------------------------|
c|---------------------------------------------------------------------------|
    . ....              . ....               . ....
Intro Guitar 2
d|------------------------------------------------------------------------|
a|------------------------------------------------------------------------|
f|------------------------------------------------------------------------|
c|---------777777777777777---7-6-5-33333333---5-33-7-55--5-6-7------------|
g|---------777777777777777x2-7-6-5-33333333x2-5-33-7-55--5-6-7------------|
c|---------777777777777777---7-6-5-33333333---5-33-7-55--5-6-7------------|

Verse (Both Guitars)
d|-----------------------------------------------------------------------|
a|-----------------------------------------------------------------------|
f|-----------------------------------------------------------------------|
c|-777777777777777-567-7777777777777-7-6-5----33333333333333-3-5-3-------|
g|-777777777777777-567-7777777777777-7-6-5----33333333333333-3-5-3-------|
c|-777777777777777-567-7777777777777-7-6-5-3*-33333333333333-3-5-3-------|
   ...............     .............          ..............

d|--------------------------------------|
a|--------------------------------------|
f|-------------777777-------------------|
c|-0000000000---------5-6-7-------------| x2
g|-0000000000--555555-5-6-7-------------|
c|-0000000000---------5-6-7-------------|
   ..........

Pre Chorus Guitar 1
d|-------------------------------------------|
a|-------------------------------------------|
f|-------------------------------------------|
c|-2-2/4-55-4-45-4-22-/574-------------------|
g|-3-3/5-55-5-55-5-33-/555-------------------|
c|-------------------------------------------|

Pre Chorus Guitar 2
d|--------------------------------------|
a|--------------------------------------|
f|--------------------------------------|
c|-3-----------5-33-3-7-5---------------|
g|-3-----------5-33-3-7-5---------------|
c|-3-----------5-33-3-7-5---------------|

Chorus Guitar 1
d|---------------------------------------------------------------------------|
a|---------------------------------------------------------------------------|
f|---------7\5-55-44445--------7\5-55-444\22--------7\5-55-797-5-4-4-22-5-44-|
c|---------7\5-55-55555--------7\5-55-555\33--------7\5-55-777-5-5-5-33-5-55-|
g|--0-0000--------------0-0000---------------0-0000--------------------------|
c|---------------------------------------------------------------------------|
    . ....              . ....               . ....

Chorus Guitar 2
d|------------------------------------------------------------------------|
a|------------------------------------------------------------------------|
f|------------------------------------------------------------------------|
c|---------777777777777777---7-6-5-33333333---5-33-7-55--5-6-7------------|
g|---------777777777777777x2-7-6-5-33333333x2-5-33-7-55--5-6-7------------|
c|---------777777777777777---7-6-5-33333333---5-33-7-55--5-6-7------------|

Rest while bass plays verse
Repeat Verse
Repeat Pre Chorus
Repeat Chorus

Bridge Guitar 1
d|---------------------------------|
a|-8-8-8-88-8-888------------------|
f|-9-9-9-99-9-999------------------|
c|---------------------------------|
g|---------------------------------|
c|---------------------------------|
(this is as much as i could figure out for the first guitar)

Bridge guitar 2
d|
a|----------------------------------------------|
f|-----------------22222222-55555555------------|
c|--33333333--5555-22222222-55555555------------|
g|--33333333--5555-00000000-33333333------------|
c|--33333333--5555------------------------------|

solo
d|------------------------------------------------------------------------|
a|-15\-13\-10\---10-8-10/13-10*-------------------------------------------|
f|---------------------------------------12b(12)-12-----------------------|
c|------------------------------10h12h13------------12-10----10-----------|
g|--------------------------------------------------------12----12-10\----|
c|------------------------------------------------------------------------|
[ Tab from: http://www.guitaretab.com/a/atreyu/159361.html ]
d|-12----12----12----12----------15------10p8---------10p8------------|
a|-15b17-15b17-15b17-15b17-15p13----13\-------10p8--------10p8--------|
f|------------------------------------------------9p7---------9p7-----|
c|--------------------------------------------------------------------|
g|--------------------------------------------------------------------|
c|--------------------------------------------------------------------|

d|-10p8---8----------------------|-22\-20\-17\--17-15-17-20-17--------|
a|------10--10p8-10p8------------|------------------------------------|
f|--------------------9p7--7h9\--|------------------------------------|
c|------------------------9------|------------------------------------|
g|-------------------------------|------------------------------------|
c|-------------------------------|------------------------------------|

d|----------------------------------------20p19---------|
a|-t15p10h13-t15p10h13-----------------19---------------|
f|----------------------14/17-17-17-17------------------|
c|------------------------------------------------------|
g|------------------------------------------------------|
c|------------------------------------------------------|

d|-20p19h20p19---20p19h20p19----22p19---20p19h20p19----20p19h20p19---22p19---|
a|------------22-------------22-------22------------22-------------22-----22-|
f|---------------------------------------------------------------------------|
c|---------------------------------------------------------------------------|
g|---------------------------------------------------------------------------|
c|---------------------------------------------------------------------------|

d|-20\------20b22-20-19-17----17-17-------------|
a|-------------------------20-------------------|
f|----------------------------------------------|
c|----------------------------------------------|
g|----------------------------------------------|
c|----------------------------------------------|

Guitar 2 during solo
d|-----------------------------------------------------------------------|
a|-----------------------------------------------------------------------|
f|-----------------------------------------------------------------------|
c|-777777777777777-567-7777777777777-7-6-5----33333333333333-3-5-3-------|
g|-777777777777777-567-7777777777777-7-6-5----33333333333333-3-5-3-------|
c|-777777777777777-567-7777777777777-7-6-5-3*-33333333333333-3-5-3-------|
   ...............     .............          ..............

d|--------------------------------------|
a|--------------------------------------|
f|-------------777777-------------------|
c|-0000000000---------5-6-7-------------| x2
g|-0000000000--555555-5-6-7-------------|
c|-0000000000---------5-6-7-------------|

New Prechorus Guitar 1
d|---------------------------------------------15-16-17--15-16-17--15-16-17-|
a|-13\-13h15h17-17-15-13p12-12-10-10-13-12-12-------------------------------|
f|--------------------------------------------------------------------------|
c|--------------------------------------------------------------------------|
g|--------------------------------------------------------------------------|
c|--------------------------------------------------------------------------|

New Prechorus Guitar 2
d|----------------------------------------------------------------------|
a|-10\-10h12h13-13-12-12p10--8\6-6--10h12-8---8-9-10--8-9-10--8-9-10----|
f|----------------------------------------------------------------------|
c|----------------------------------------------------------------------|
g|----------------------------------------------------------------------|
c|----------------------------------------------------------------------|

Prechorus Guitar 3 (originally guitar 2)
d|--------------------------------------|
a|--------------------------------------|
f|--------------------------------------|
c|-3-----------5-33-3-7-5---------------|
g|-3-----------5-33-3-7-5---------------|
c|-3-----------5-33-3-7-5---------------|

Repeat Intro Guitar 1 pt.1

Chorus with added ending
d|-----------------------------|---------------------------------|
a|-----------------------------|---------------------------------|
f|-4-22--5-44-4-22-5-44--------|---------------------------------|
c|-5-33--5-55-5-33-5-55--------|-5-33--7-55--5-33--7-5-----------|
g|-----------------------------|-5-33--7-55--5-33--7-55----------|
c|-----------------------------|-5-33--7-55--5-33--7-55----------|

d|---------------------------------------|
a|---------------------------------------|
f|---------------------------------------|
c|-5-6-7--5-6-7--5-6---------------------|
g|-5-6-7--5-6-7--5-6---------------------|
c|-5-6-7--5-6-7--5-6---------------------|

Outro Guitar 2
d|------------------------|
a|------------------------|
f|------------------------|
c|--------7---------------|
g|--------7---------------|
c|--------7---------------|

There were a few parts i couldn't figure out. I couldn't figure out much of the bridge,
there were a few parts of the solo i think are a little wrong but couldn't exactly
out. I also didn't find out the outro for the first guitar, but it doesn't sound hard so 
can do it yourself, this was all for basic structure for the song anyway. Enjoy.
Related for Blow tab
×
Blow