Song name
# A B C D E F G H I J K L M N O P Q R S T U V W X Y Z

Atreyu - Falling Down tab

-------------------------------------------------------------------------------
			     Falling Down - Atreyu
-------------------------------------------------------------------------------
Tabbed by: vengefuleyes
Email: vengefuleyes89129@yahoo.com

Tuning: Drop C

I'm going to do this in sections to make it easier.


Starts when Alex says "Come on!"

D|-------------------17-------|
A|---------------------16-----|
F|-17b~--17b19r17p15----------|
C|----------------------------|
G|----------------------------|
C|----------------------------| 


D|-20-19-17----17----------------20--------|
A|----------20----20-20b22r20p18-----------|
F|----------------------------------17-----|
C|-----------------------------------------|
G|-----------------------------------------|
C|-----------------------------------------| 


D|---------------------------------------------|
A|-5p0-8-7p5---5-------------------------------|
F|-----------7---7b9r7p5---7-5-----------------|
C|----------------------7------7-5-------------|
G|---------------------------------7-5-5\3-----|
C|---------------------------------------------| 


D|-15p13---17p15---19p17---20p17----20-19-17----------|
A|------15------17------19------20-----------20b~-----|
F|----------------------------------------------------|
C|----------------------------------------------------|
G|----------------------------------------------------|
C|----------------------------------------------------| 


D|-17b~-----------|
A|-------10b~-----|
F|----------------|
C|----------------|
G|----------------|
C|----------------| 

That's really all I could figure out, if I get
anything else I'll update it, but I'm pretty sure 
this is 100% correct.



===============================================================================
Tap to rate this tab
 
# A B C D E F G H I J K L M N O P Q R S T U V W X Y Z