Song name
# A B C D E F G H I J K L M N O P Q R S T U V W X Y Z

Atreyu - Honor tab

                     HONOR
                              As recorded by Atreyu
                  (From the 2007 Album LEAD SAILS PAPER ANCHOR)

Words and Music by Atreyu
Arranged by Atreyu
Transcribed by Dandyhandy17

Gtr I (C G C F A D) - 'Travis Miguel'
Gtr II (C G C F A D) - 'Dan Jacobs'
Gtr III (C G C F A D) - 'pickscrape'

   Intro
    Faster Q=182
   4/4
    Gtr I
                  PM--------------|
    E E E E E E E E   E E E E E E E E   E E E E E E E +E    E E E E E E E E
||------------------|-----------------|-------------------|------------------||
||o-----------------|-----------------|-------------------|-----------------o||
||------------------|-----------------|-------------------|------------------||
||------------------|-----------------|-------------------|------------------||
||o-------5---------|-----------------|-----5-------5-(5)-|---------3-------o||
||--0-3-5---0-5-3-0-|-0-0-0-0-0-0-0-0-|-3-5---0-5-3-------|-6-0-3-0---5-3-0--||


    Gtrs I, II
                  PM--------------|
    E E E E E E E E   E E E E E E E E   E E E E E E E +E    E E E E E E E E
||------------------|-----------------|-------------------|-------------------||
||o-----------------|-----------------|-------------------|------------------o||
||------------------|-----------------|-------------------|-------------------||
||------------------|-----------------|-------------------|-------------------||
||o-------5---------|-----------------|-----5-------5-(5)-|---------3--------o||
||--0-3-5---0-5-3-0-|-0-0-0-0-0-0-0-0-|-3-5---0-5-3-------|-6-0-3-0---5-3-0---||


   Verse 1
    Gtr I
                  PM--------------|
    E E E E E E E E   E E E E E E E E   E E E E E E E +E    E E E E E E E E
||------------------|-----------------|-------------------|-------------------||
||o-----------------|-----------------|-------------------|------------------o||
||------------------|-----------------|-------------------|-------------------||
||------------------|-----------------|-------------------|-------------------||
||o-------5---------|-----------------|-----5-------5-(5)-|---------3--------o||
||--0-3-5---0-5-3-0-|-0-0-0-0-0-0-0-0-|-3-5---0-5-3-------|-6-0-3-0---5-3-0---||


 Pre-Chorus 1
  Gtrs I, II
                PM--------------|
  E E E E E E E E   E E E E E E E E   E E E E E E E +E    E E E E E E E E
|-----------------|-----------------|-------------------|-------------------|
|-----------------|-----------------|-------------------|-------------------|
|-----------------|-----------------|-------------------|-------------------|
|-----------------|-----------------|-------------------|-------------------|
|-------5---------|-----------------|-----5-------5-(5)-|---------3---------|
|-0-3-5---0-5-3-0-|-0-0-0-0-0-0-0-0-|-3-5---0-5-3-------|-6-0-3-0---5-3-0---|


                PM--------------|
  E E E E E E E E   E E E E E E E E   E E E E E E E +E    Q  H.
|-----------------|-----------------|-------------------|----------||
|-----------------|-----------------|-------------------|----------||
|-----------------|-----------------|-------------------|----------||
|-----------------|-----------------|-------------------|----------||
|-------5---------|-----------------|-----5-------5-(5)-|----------||
|-0-3-5---0-5-3-0-|-0-0-0-0-0-0-0-0-|-3-5---0-5-3-------|-6--------||


 Chorus
  G#5                                 C5
  Gtr II
  E E E E E E E E   E E E E E E E E   E E E E E E E E   E E E E E E E E
|-----------------|-----------------|-----------------|-----------------|
|-----------------|-----------------|-----------------|-----------------|
|-----------------|-----------------|-----------------|-----------------|
|-8-8-8-8-8-8-8-8-|-8-8-8-8-8-8-8-8-|-0-0-0-0-0-0-0-0-|-0-0-0-0-0-0-0-0-|
|-8-8-8-8-8-8-8-8-|-8-8-8-8-8-8-8-8-|-0-0-0-0-0-0-0-0-|-0-0-0-0-0-0-0-0-|
|-8-8-8-8-8-8-8-8-|-8-8-8-8-8-8-8-8-|-0-0-0-0-0-0-0-0-|-0-0-0-0-0-0-0-0-|
|
| Gtr III
|       W                 W                 W                 W
|-----------------|-----------------|-----------------|-----------------|
|-----------------|-----------------|-----------------|-----------------|
|-----------------|-----------------|-----------------|-----------------|
|-----------------|-----------------|-----------------|-----------------|
|-----------------|-----------------|-----------------|-----------------|
|-----------------|-----------------|-----------------|-----------------|


  A#5
   E  E  E  E  E  E  E  E    E  E  E  E  E  E  E  E
|-------------------------|-------------------------|
|-------------------------|-------------------------|
|-------------------------|-------------------------|
|-10-10-10-10-10-10-10-10-|-10-10-10-10-10-10-10-10-|
|-10-10-10-10-10-10-10-10-|-10-10-10-10-10-10-10-10-|
|-10-10-10-10-10-10-10-10-|-10-10-10-10-10-10-10-10-|
|
|        W                            W
|-------------------------|-------------------------|
|-------------------------|-------------------------|
|-------------------------|-------------------------|
|-------------------------|-------------------------|
|-------------------------|-------------------------|
|-------------------------|-------------------------|


  F5
  E E E E E E E E   E E  E     E     E     E     E     E
|-----------------|----------------------------------------|
|-----------------|----------------------------------------|
|-----------------|----------------------------------------|
|-5-5-5-5-5-5-5-5-|-5-5--5-----5-----5-----5-----5-----5---|
|-5-5-5-5-5-5-5-5-|-5-5--5-----5-----5-----5-----5-----5---|
|-5-5-5-5-5-5-5-5-|-5-5--5-----5-----5-----5-----5-----5---|
|
|       W           Q    S  S  S  S  S  S  S  S  S  S  S S
|-----------------|----------------------------------------|
|-----------------|----------------------------------------|
|-----------------|----------------------------------------|
|-----------------|----------------------------------------|
|-----------------|-----20-19-18-17-16-15-14-13-12-11-10-9-|
|-----------------|----------------------------------------|


  G#5                                 C5
  E E E E E E E E   E E E E E E E E   E E E E E E E E   E E E E E E E E
|-----------------|-----------------|-----------------|-----------------|
|-----------------|-----------------|-----------------|-----------------|
|-----------------|-----------------|-----------------|-----------------|
|-8-8-8-8-8-8-8-8-|-8-8-8-8-8-8-8-8-|-0-0-0-0-0-0-0-0-|-0-0-0-0-0-0-0-0-|
|-8-8-8-8-8-8-8-8-|-8-8-8-8-8-8-8-8-|-0-0-0-0-0-0-0-0-|-0-0-0-0-0-0-0-0-|
|-8-8-8-8-8-8-8-8-|-8-8-8-8-8-8-8-8-|-0-0-0-0-0-0-0-0-|-0-0-0-0-0-0-0-0-|
|
| Gtr I
| E E E E E E E E   E E E E E E E E   E E E E E E E E   E E E E E E E E
|-----------------|-----------------|-5-5-5-5-5-5-5-5-|-5-5-5-5-5-5-5-5-|
|-3-3-3-3-3-3-3-3-|-3-3-3-3-3-3-3-3-|-----------------|-----------------|
|-----------------|-----------------|-----------------|-----------------|
|-----------------|-----------------|-----------------|-----------------|
|-----------------|-----------------|-----------------|-----------------|
|-----------------|-----------------|-----------------|-----------------|


  A#5
   E  E  E  E  E  E  E  E    E  E  E  E  E  E  E  E
|-------------------------|-------------------------|
|-------------------------|-------------------------|
|-------------------------|-------------------------|
|-10-10-10-10-10-10-10-10-|-10-10-10-10-10-10-10-10-|
|-10-10-10-10-10-10-10-10-|-10-10-10-10-10-10-10-10-|
|-10-10-10-10-10-10-10-10-|-10-10-10-10-10-10-10-10-|
|
|  E  E  E  E  E  E  E  E    E  E  E  E  E  E  E  E
|--3--3--3--3--3--3--3--3-|--3--3--3--3--3--3--3--3-|
|-------------------------|-------------------------|
|-------------------------|-------------------------|
|-------------------------|-------------------------|
|-------------------------|-------------------------|
|-------------------------|-------------------------|


  F5
  E E E E E E E E   E E E E E E E E
|-----------------|-----------------||
|-----------------|-----------------||
|-----------------|-----------------||
|-5-5-5-5-5-5-5-5-|-5-5-5-5-5-5-5-5-||
|-5-5-5-5-5-5-5-5-|-5-5-5-5-5-5-5-5-||
|-5-5-5-5-5-5-5-5-|-5-5-5-5-5-5-5-5-||
|
| E E E E E E E E   E E E E E E E E
|-3-3-3-3-3-3-3-3-|-3-3-3-3-3-3-3-3-||
|-----------------|-----------------||
|-----------------|-----------------||
|-----------------|-----------------||
|-----------------|-----------------||
|-----------------|-----------------||


 Pre-Verse
  Gtrs I, II
                PM--------------|
  E E E E E E E E   E E E E E E E E   E E E E E E E +E    E E E E E E E E
|-----------------|-----------------|-------------------|-----------------||
|-----------------|-----------------|-------------------|-----------------||
|-----------------|-----------------|-------------------|-----------------||
|-----------------|-----------------|-------------------|-----------------||
|-------5---------|-----------------|-----5-------5-(5)-|---------3-------||
|-0-3-5---0-5-3-0-|-0-0-0-0-0-0-0-0-|-3-5---0-5-3-------|-6-0-3-0---5-3-0-||


 Verse 2
  Gtr II
  W         W          W          W
|---------|----------|----------|-----------|
|---------|----------|----------|-----------|
|---------|----------|----------|-----------|
|-0-------|-6--------|-0--------|-6---------|
|-0-------|-6--------|-0--------|-6---------|
|-0-------|-6--------|-0--------|-6---------|
|
| Gtr I
| W         W          W             W
|---------|----------|----------|-----------|
|---------|----------|----------|-----------|
|---------|----------|----------|-----------|
|---------|----------|----------|-----------|
|---------|----------|----------|-----------|
|---------|----------|----------|-----------|


   W           W                 W                  W
|------------|---------------|--------------|------------||
|------------|---------------|--------------|------------||
|------------|---------------|--------------|------------||
|--0---------|-6-------------|---0----------|------------||
|--0---------|-6-------------|---0----------|------------||
|--0---------|-6-------------|---0----------|------------||
|
|  W              +W            +W             W
|------------|---------------|--------------|------------||
|------------|---------------|--------------|-[1]--------||
|-<7>--------|---(<7>)-------|-(<7>)--------|------------||
|-<5>--------|---(<5>)-------|-(<5>)--------|------------||
|------------|---------------|--------------|------------||
|------------|---------------|--------------|------------||


 Pre-Chorus 2
  W           W           W           H           H
|-----------|-----------|-----------|------------------|
|-----------|-----------|-----------|------------------|
|-----------|-----------|-----------|------------------|
|-0---------|-6---------|-0---------|-6----------------|
|-0---------|-6---------|-0---------|-6----------------|
|-0---------|-6---------|-0---------|-6----------------|
|
|                                         \0.25/
|                                         ~~~~~~~
|    W            W           W       H   H
|-----------|-----------|-----------|------------------|
|-----------|-----------|-----------|------------------|
|-----------|-----------|-----------|----<5>b7---------|
|-----------|-----------|-----------|------------------|
|-----------|-----------|-----------|------------------|
|-----------|-----------|-----------|------------------|


   E  E E E E E E E    E  E E E E E E E    E  E E E E E E E    Q   Q     H
|-------------------|-------------------|-------------------|----------------||
|-------------------|-------------------|-------------------|----------------||
|-------------------|-------------------|-------------------|----------------||
|--0--0-0-0-0-0-0-0-|--6--6-6-6-6-6-6-6-|--0--0-0-0-0-0-0-0-|--6-------------||
|--0--0-0-0-0-0-0-0-|--6--6-6-6-6-6-6-6-|--0--0-0-0-0-0-0-0-|--6-------------||
|--0--0-0-0-0-0-0-0-|--6--6-6-6-6-6-6-6-|--0--0-0-0-0-0-0-0-|--6-------------||
|
|  W                   W                   W                   Q      H.
|-------------------|-------------------|-------------------|----------------||
|-------------------|-[1]---------------|-------------------|-[1]------------||
|-[0]---------------|-------------------|-[0]---------------|----------------||
|-------------------|-------------------|-------------------|----------------||
|-------------------|-------------------|-------------------|----------------||
|-------------------|-------------------|-------------------|----------------||


   Chorus
    G#5                                 C5
    E E E E E E E E   E E E E E E E E   E E E E E E E E   E E E E E E E E
||------------------|-----------------|-----------------|----------------|
||o-----------------|-----------------|-----------------|----------------|
||------------------|-----------------|-----------------|----------------|
||--8-8-8-8-8-8-8-8-|-8-8-8-8-8-8-8-8-|-0-0-0-0-0-0-0-0-|-0-0-0-0-0-0-0-0|
||o-8-8-8-8-8-8-8-8-|-8-8-8-8-8-8-8-8-|-0-0-0-0-0-0-0-0-|-0-0-0-0-0-0-0-0|
||--8-8-8-8-8-8-8-8-|-8-8-8-8-8-8-8-8-|-0-0-0-0-0-0-0-0-|-0-0-0-0-0-0-0-0|
|
|   E E E E E E E E   E E E E E E E E   E E E E E E E E   E E E E E E E E
||------------------|-----------------|-5-5-5-5-5-5-5-5-|-5-5-5-5-5-5-5-5|
||o-3-3-3-3-3-3-3-3-|-3-3-3-3-3-3-3-3-|-----------------|----------------|
||------------------|-----------------|-----------------|----------------|
||------------------|-----------------|-----------------|----------------|
||o-----------------|-----------------|-----------------|----------------|
||------------------|-----------------|-----------------|----------------|


  A#5
   E  E  E  E  E  E  E  E    E  E  E  E  E  E  E  E
|-------------------------|-------------------------|
|-------------------------|-------------------------|
|-------------------------|-------------------------|
|-10-10-10-10-10-10-10-10-|-10-10-10-10-10-10-10-10-|
|-10-10-10-10-10-10-10-10-|-10-10-10-10-10-10-10-10-|
|-10-10-10-10-10-10-10-10-|-10-10-10-10-10-10-10-10-|
|
|  E  E  E  E  E  E  E  E    E  E  E  E  E  E  E  E
|--3--3--3--3--3--3--3--3-|--3--3--3--3--3--3--3--3-|
|-------------------------|-------------------------|
|-------------------------|-------------------------|
|-------------------------|-------------------------|
|-------------------------|-------------------------|
|-------------------------|-------------------------|


  F5
  E E E E E E E E   E E E E E E E E
|-----------------|------------------||
|-----------------|-----------------o||
|-----------------|------------------||
|-5-5-5-5-5-5-5-5-|-5-5-5-5-5-5-5-5--||
|-5-5-5-5-5-5-5-5-|-5-5-5-5-5-5-5-5-o||
|-5-5-5-5-5-5-5-5-|-5-5-5-5-5-5-5-5--||
|
| E E E E E E E E   E E E E E E E E
|-3-3-3-3-3-3-3-3-|-3-3-3-3-3-3-3-3--||
|-----------------|-----------------o||
|-----------------|------------------||
|-----------------|------------------||
|-----------------|-----------------o||
|-----------------|------------------||


  E E E E E E E E    E  E  E  E  E  E  E  E
|-----------------|-------------------------||
|-----------------|-------------------------||
|-----------------|-------------------------||
|-8-8-8-8-8-8-8-8-|-10-10-10-10-10-10-10-10-||
|-8-8-8-8-8-8-8-8-|-10-10-10-10-10-10-10-10-||
|-8-8-8-8-8-8-8-8-|-10-10-10-10-10-10-10-10-||
|
| E E E E E E E E    E  E  E  E  E  E  E  E
|-5-5-5-5-5-5-5-5-|--6--6--6--6--6--6--6--6-||
|-----------------|-------------------------||
|-----------------|-------------------------||
|-----------------|-------------------------||
|-----------------|-------------------------||
|-----------------|-------------------------||


 Bridge
  E E Q  E E Q     E  E  Q   E  E  Q
|---------------|---------------------|
|---------------|---------------------|
|---------------|---------------------|
|-8-8-8--8-8-8--|-10-10-10--10-10-10--|
|-8-8-8--8-8-8--|-10-10-10--10-10-10--|
|-8-8-8--8-8-8--|-10-10-10--10-10-10--|
|
| E E Q  E E Q     E  E  Q   E  E  Q
|---------------|---------------------|
|---------------|---------------------|
|---------------|---------------------|
|-8-8-8--8-8-8--|-10-10-10--10-10-10--|
|-8-8-8--8-8-8--|-10-10-10--10-10-10--|
|-8-8-8--8-8-8--|-10-10-10--10-10-10--|


   E  E  Q   E  E  Q     E  E  Q   E  E  Q
|---------------------|---------------------|
|---------------------|---------------------|
|---------------------|---------------------|
|-12-12-12--12-12-12--|-15-15-15--15-15-15--|
|-12-12-12--12-12-12--|-15-15-15--15-15-15--|
|-12-12-12--12-12-12--|-15-15-15--15-15-15--|
|
|  E  E  Q   E  E  Q     E  E  Q   E  E  Q
|---------------------|---------------------|
|---------------------|---------------------|
|---------------------|---------------------|
|-12-12-12--12-12-12--|-15-15-15--15-15-15--|
|-12-12-12--12-12-12--|-15-15-15--15-15-15--|
|-12-12-12--12-12-12--|-15-15-15--15-15-15--|


  E E Q  E E Q     E  E  Q   E  E  Q
|---------------|---------------------|
|---------------|---------------------|
|---------------|---------------------|
|-8-8-8--8-8-8--|-10-10-10--10-10-10--|
|-8-8-8--8-8-8--|-10-10-10--10-10-10--|
|-8-8-8--8-8-8--|-10-10-10--10-10-10--|
|
| E E Q  E E Q     E  E  Q   E  E  Q
|---------------|---------------------|
|---------------|---------------------|
|---------------|---------------------|
|-8-8-8--8-8-8--|-10-10-10--10-10-10--|
|-8-8-8--8-8-8--|-10-10-10--10-10-10--|
|-8-8-8--8-8-8--|-10-10-10--10-10-10--|


   E  E  Q   E  E  Q     E  E  Q   Q  Q    E E Q  E E Q     E  E  Q   E  E  Q
|---------------------|------------------|---------------|---------------------|
|---------------------|------------------|---------------|---------------------|
|---------------------|------------------|---------------|---------------------|
|-12-12-12--12-12-12--|-12-12-12--10--8--|-8-8-8--8-8-8--|-10-10-10--10-10-10--|
|-12-12-12--12-12-12--|-12-12-12--10--8--|-8-8-8--8-8-8--|-10-10-10--10-10-10--|
|-12-12-12--12-12-12--|-12-12-12--10--8--|-8-8-8--8-8-8--|-10-10-10--10-10-10--|
|
|  E  E  Q   E  E  Q     E  E  Q   Q  Q    E E Q  E E Q     E  E  Q   E  E  Q
|---------------------|------------------|---------------|---------------------|
|---------------------|------------------|---------------|---------------------|
|---------------------|------------------|---------------|---------------------|
|-12-12-12--12-12-12--|-12-12-12--10--8--|-8-8-8--8-8-8--|-10-10-10--10-10-10--|
|-12-12-12--12-12-12--|-12-12-12--10--8--|-8-8-8--8-8-8--|-10-10-10--10-10-10--|
|-12-12-12--12-12-12--|-12-12-12--10--8--|-8-8-8--8-8-8--|-10-10-10--10-10-10--|


                                        PM|    PM|      PM|    PM|
   E  E  Q   E  E  Q    E E Q  E E Q    E E Q  E E Q    E E Q  E E Q
|---------------------|---------------|---------------|---------------|
|---------------------|---------------|---------------|---------------|
|---------------------|---------------|---------------|---------------|
|-12-12-12--12-12-12--|-7-7-7--7-7-7--|-8-8-8--8-8-8--|-8-8-8--8-8-8--|
|-12-12-12--12-12-12--|-7-7-7--7-7-7--|-8-8-8--8-8-8--|-8-8-8--8-8-8--|
|-12-12-12--12-12-12--|-7-7-7--7-7-7--|-8-8-8--8-8-8--|-8-8-8--8-8-8--|
|
|                                       PM|    PM|      PM|    PM|
|  E  E  Q   E  E  Q    E E Q  E E Q    E E Q  E E Q    E E Q  E E Q
|---------------------|---------------|---------------|---------------|
|---------------------|---------------|---------------|---------------|
|---------------------|---------------|---------------|---------------|
|-12-12-12--12-12-12--|-7-7-7--7-7-7--|-8-8-8--8-8-8--|-8-8-8--8-8-8--|
|-12-12-12--12-12-12--|-7-7-7--7-7-7--|-8-8-8--8-8-8--|-8-8-8--8-8-8--|
|-12-12-12--12-12-12--|-7-7-7--7-7-7--|-8-8-8--8-8-8--|-8-8-8--8-8-8--|


  PM|    PM|      PM|    PM|                    PM-
  E E Q  E E Q    E E Q  E E Q    E E E E E E E E
|---------------|---------------|-----------------|
|---------------|---------------|-----------------|
|---------------|---------------|-----------------|
|-7-7-7--7-7-7--|-7-7-7--7-7-7--|-----------------|
|-7-7-7--7-7-7--|-7-7-7--7-7-7--|-------5---------|
|-7-7-7--7-7-7--|-7-7-7--7-7-7--|-0-3-5---0-5-3-0-|
|
| PM|    PM|      PM|    PM|                    PM-
| E E Q  E E Q    E E Q  E E Q    E E E E E E E E
|---------------|---------------|-----------------|
|---------------|---------------|-----------------|
|---------------|---------------|-----------------|
|-7-7-7--7-7-7--|-7-7-7--7-7-7--|-----------------|
|-7-7-7--7-7-7--|-7-7-7--7-7-7--|-------5---------|
|-7-7-7--7-7-7--|-7-7-7--7-7-7--|-0-3-5---0-5-3-0-|


 -------------|
  E E E E E E E E   E E E E E E E +E    E E E E E E E E
|-----------------|-------------------|------------------||
|-----------------|-------------------|------------------||
|-----------------|-------------------|------------------||
|-----------------|-------------------|------------------||
|-----------------|-----5-------5-(5)-|---------3--------||
|-0-0-0-0-0-0-0-0-|-3-5---0-5-3-------|-6-0-3-0---5-3-0--||
|
|-------------|
| E E E E E E E E   E E E E E E E +E    E E E E E E E E
|-----------------|-------------------|------------------||
|-----------------|-------------------|------------------||
|-----------------|-------------------|------------------||
|-----------------|-------------------|------------------||
|-----------------|-----5-------5-(5)-|---------3--------||
|-0-0-0-0-0-0-0-0-|-3-5---0-5-3-------|-6-0-3-0---5-3-0--||


 Chorus
                          C5
  W           W           E E E E E E E E   E E E E E E E E
|-----------|-----------|-----------------|-----------------|
|-----------|-----------|-----------------|-----------------|
|-----------|-----------|-----------------|-----------------|
|-----------|-----------|-0-0-0-0-0-0-0-0-|-0-0-0-0-0-0-0-0-|
|-----------|-----------|-0-0-0-0-0-0-0-0-|-0-0-0-0-0-0-0-0-|
|-----------|-----------|-0-0-0-0-0-0-0-0-|-0-0-0-0-0-0-0-0-|
|
|    W           W        E E E E E E E E   E E E E E E E E
|-----------|-----------|-5-5-5-5-5-5-5-5-|-5-5-5-5-5-5-5-5-|
|-----------|-----------|-----------------|-----------------|
|-----------|-----------|-----------------|-----------------|
|-----------|-----------|-----------------|-----------------|
|-----------|-----------|-----------------|-----------------|
|-----------|-----------|-----------------|-----------------|


  A#5
   E  E  E  E  E  E  E  E    E  E  E  E  E  E  E  E
|-------------------------|-------------------------|
|-------------------------|-------------------------|
|-------------------------|-------------------------|
|-10-10-10-10-10-10-10-10-|-10-10-10-10-10-10-10-10-|
|-10-10-10-10-10-10-10-10-|-10-10-10-10-10-10-10-10-|
|-10-10-10-10-10-10-10-10-|-10-10-10-10-10-10-10-10-|
|
|  E  E  E  E  E  E  E  E    E  E  E  E  E  E  E  E
|--3--3--3--3--3--3--3--3-|--3--3--3--3--3--3--3--3-|
|-------------------------|-------------------------|
|-------------------------|-------------------------|
|-------------------------|-------------------------|
|-------------------------|-------------------------|
|-------------------------|-------------------------|


  F5
  E E E E E E E E   E E E E E E E E
|-----------------|-----------------||
|-----------------|-----------------||
|-----------------|-----------------||
|-5-5-5-5-5-5-5-5-|-5-5-5-5-5-5-5-5-||
|-5-5-5-5-5-5-5-5-|-5-5-5-5-5-5-5-5-||
|-5-5-5-5-5-5-5-5-|-5-5-5-5-5-5-5-5-||
|
| E E E E E E E E   E E E E E E E E
|-3-3-3-3-3-3-3-3-|-3-3-3-3-3-3-3-3-||
|-----------------|-----------------||
|-----------------|-----------------||
|-----------------|-----------------||
|-----------------|-----------------||
|-----------------|-----------------||


 Out-Chorus
  Gtrs I, II
  E E E E E E E E    E  E  E  E  E  E  E  E
|-----------------|-------------------------|
|-----------------|-------------------------|
|-----------------|-------------------------|
|-8-8-8-8-8-8-8-8-|-10-10-10-10-10-10-10-10-|
|-8-8-8-8-8-8-8-8-|-10-10-10-10-10-10-10-10-|
|-8-8-8-8-8-8-8-8-|-10-10-10-10-10-10-10-10-|


   E  E  E  E  E  E  E  E    E  E  E  E  E  E  E  E
|-------------------------|-------------------------|
|-------------------------|-------------------------|
|-------------------------|-------------------------|
|-12-12-12-12-12-12-12-12-|-15-15-15-15-15-15-15-15-|
|-12-12-12-12-12-12-12-12-|-15-15-15-15-15-15-15-15-|
|-12-12-12-12-12-12-12-12-|-15-15-15-15-15-15-15-15-|


  E E E E E E E E    E  E  E  E  E  E  E  E
|-----------------|-------------------------|
|-----------------|-------------------------|
|-----------------|-------------------------|
|-8-8-8-8-8-8-8-8-|-10-10-10-10-10-10-10-10-|
|-8-8-8-8-8-8-8-8-|-10-10-10-10-10-10-10-10-|
|-8-8-8-8-8-8-8-8-|-10-10-10-10-10-10-10-10-|


   E  E  E  E  E  E  E  E    E  E  E  E  E  E  E  E
|-------------------------|-------------------------|
|-------------------------|-------------------------|
|-------------------------|-------------------------|
|-12-12-12-12-12-12-12-12-|-12-12-12-12-12-12-12-12-|
|-12-12-12-12-12-12-12-12-|-12-12-12-12-12-12-12-12-|
|-12-12-12-12-12-12-12-12-|-12-12-12-12-12-12-12-12-|


  E E E E E E E E    E  E  E  E  E  E  E  E
|-----------------|-------------------------|
|-----------------|-------------------------|
|-----------------|-------------------------|
|-8-8-8-8-8-8-8-8-|-10-10-10-10-10-10-10-10-|
|-8-8-8-8-8-8-8-8-|-10-10-10-10-10-10-10-10-|
|-8-8-8-8-8-8-8-8-|-10-10-10-10-10-10-10-10-|


   E  E  E  E  E  E  E  E   E E E E E E E E
|-------------------------|-----------------|
|-------------------------|-----------------|
|-------------------------|-----------------|
|-12-12-12-12-12-12-12-12-|-7-7-7-7-7-7-7-7-|
|-12-12-12-12-12-12-12-12-|-7-7-7-7-7-7-7-7-|
|-12-12-12-12-12-12-12-12-|-7-7-7-7-7-7-7-7-|


  E E E E E E E E   E E E E E E E E   E E E E E E E E   E E E E E E E E
|-----------------|-----------------|-----------------|-----------------||
|-----------------|-----------------|-----------------|-----------------||
|-----------------|-----------------|-----------------|-----------------||
|-8-8-8-8-8-8-8-8-|-8-8-8-8-8-8-8-8-|-7-7-7-7-7-7-7-7-|-7-7-7-7-7-7-7-7-||
|-8-8-8-8-8-8-8-8-|-8-8-8-8-8-8-8-8-|-7-7-7-7-7-7-7-7-|-7-7-7-7-7-7-7-7-||
|-8-8-8-8-8-8-8-8-|-8-8-8-8-8-8-8-8-|-7-7-7-7-7-7-7-7-|-7-7-7-7-7-7-7-7-||


 Outro
  Gtrs I, II
                PM--------------|
  E E E E E E E E   E E E E E E E E   E E E E E E E +E    E E E E E E E E
|-----------------|-----------------|-------------------|-----------------|
|-----------------|-----------------|-------------------|-----------------|
|-----------------|-----------------|-------------------|-----------------|
|-----------------|-----------------|-------------------|-----------------|
|-------5---------|-----------------|-----5-------5-(5)-|---------3-------|
|-0-3-5---0-5-3-0-|-0-0-0-0-0-0-0-0-|-3-5---0-5-3-------|-6-0-3-0---5-3-0-|


                PM--------------|
  E E E E E E E E   E E E E E E E E   E E E E E E E +E    Q  E E E Q.
|-----------------|-----------------|-------------------|---------------*|
|-----------------|-----------------|-------------------|---------------*|
|-----------------|-----------------|-------------------|---------------*|
|-----------------|-----------------|-------------------|----0-0-0-0----*|
|-------5---------|-----------------|-----5-------5-(5)-|----0-0-0-0----*|
|-0-3-5---0-5-3-0-|-0-0-0-0-0-0-0-0-|-3-5---0-5-3-------|-6--0-0-0-0----*|


Duration Legend
---------------
W - whole; H - half; Q - quarter; E - 8th; S - 16th; T - 32nd; X - 64th; a - acciaccatura
+ - note tied to previous; . - note dotted; .. - note double dotted
Uncapitalized letters represent notes that are staccato (1/2 duration)
Irregular groupings are notated above the duration line
Duration letters will always appear directly above the note/fret number it represents the
duration for.  Duration letters with no fret number below them represent rests.  Multi-
bar rests are notated in the form Wxn, where n is the number of bars to rest for.  Low
melody durations appear below the staff

Tablature Legend
----------------
 h   - hammer-on
 p   - pull-off
 b   - bend
 pb  - pre-bend
 r   - bend release (if no number after the r, then release immediately)
 /\  - slide into or out of (from/to "nowhere")
 s   - legato slide
 S   - shift slide
  - natural harmonic
[n]  - artificial harmonic
n(n) - tapped harmonic
 ~   - vibrato
 tr  - trill
 T   - tap
 TP  - trem. picking
 PM  - palm muting
\n/  - tremolo bar dip; n = amount to dip
 \n  - tremolo bar down
 n/  - tremolo bar up
/n\  - tremolo bar inverted dip
 =   - hold bend; also acts as connecting device for hammers/pulls
 <>  - volume swell (louder/softer)
 x   - on rhythm slash represents muted slash
 o   - on rhythm slash represents single note slash

Misc Legend
-----------
 |  - bar
||  - double bar
||o - repeat start
o|| - repeat end
*|  - double bar (ending)
 :  - bar (freetime)
 $  - Segno
 &  - Coda
Tempo markers -  = BPM(8/16=s8/s16), where s8 = swing 8ths, s16 = swing 16ths
Tap to rate this tab
# A B C D E F G H I J K L M N O P Q R S T U V W X Y Z