Song name
# A B C D E F G H I J K L M N O P Q R S T U V W X Y Z

Atreyu - Cant Happen Here tab

Song: Can't Happen Here
Artist: Atreyu
Album: Lead Sails, Paper Anchor
Tuning: Dropped C (CGCFAD)

The first version wasn't perfect, so I had to finish it.
I should add the only reason I know any of this song is cause of connorjobes so thanks to him.

STUFF YOU'LL NEED:
8*-pinch harmonic
b-bend
h-hammer on 
p-pull off
PM-palm mute



INTRO (0:16):
|-----------------------------------------------------------|
|-----------------------------------------------------------|
|-----------------------------------------------------------|
|-----------------------------------------------------------|
|--0h5h8-0h5h8-0h5h8-0h5h8-0h5h8p5--------------------------|
|---------------------------------0h5h8-0h5h8-0h7h10-0h7h10-|
|
|-----------------------------------------------------------|
|-----------------------------------------------------------|
|-----------------------------------------------------------|
|--0~-------------------------------------------------------|
|--0~-------------------------------------------------------|
|--0~-------------------------------------------------------|


VERSE (0:21)
|-----------------------------|
|-----------------------------|
|-----------------------------| X4
|--0-0000-000---000000--0000--|
|--0-0000-000---000000--0000--|
|--0-0000-000---000000--0000--|
|PM  **** ***   ******  ****
|AFTER 2 TIMES, GUITAR 2 DOES THIS ALONG WITH GUITAR 1
|-----------------------------------------------------------|
|-----------------------------------------------------------|
|-----------------------------------------------------------|
|-----------------------------------------------------------|
|--0h5h8-0h5h8-0h5h8-0h5h8-0h5h8p5--------------------------|
|---------------------------------0h5h8-0h5h8-0h7h10-0h7h10-|


PRE-CHORUS (0:40)
|---------------------------------------------------------------|
|---------------------------------------------------------------|
|-3-----------3--14141414\10109\775-10-7----3------------33333--|
|-3-3-0~--0-3-3-----------------------------3-3-0~---0-3-33333--|
|-1-3-0~--0-3-1--12121212\8-8-7\553--8-5----1-3-0~---0-3-11111--|
|---3-0~--0-3---------------------------------3-0~---0-3--------|
This is how I do it (I know its wrong).
|---------------------------------------------------------------|
|---------------------------------------------------------------|
|-3-----------3--3-3-3-3-3-3-3-3-3-3-3-3----3------------33333--|
|-3-3-0~--0-3-3--3-3-3-3-3-3-3-3-3-3-3-3----3-3-0~---0-3-33333--|
|-1-3-0~--0-3-1--1-1-1-1-1-1-1-1-1-1-1-1----1-3-0~---0-3-11111--|
|---3-0~--0-3---------------------------------3-0~---0-3--------|


CHORUS (0:58)
|---------------------------------------|
|---------------------------------------|
|--7--10-9--5--7-9--9--10-12-12-10-9-7--|
|---------------------------------------|
|---------------------------------------|
|---------------------------------------|
|
|---------------------------------------|
|---------------------------------------|
|--77777777666666663333333333-----------|
|--77777777666666663333333333555555555--|
|--55555555444444441111111111555555555--|
|----------------------------555555555--|

PRE-VERSE (1:07)

|-----------------------------------------------------------|
|-----------------------------------------------------------|
|-----------------------------------------------------------|
|-----------------------------------------------------------|
|--0h5h8-0h5h8-0h5h8-0h5h8-0h5h8p5--------------------------|
|---------------------------------0h5h8-0h5h8-0h7h10-0h7h10-|
|
|-----------------------------------------------------------|
|-----------------------------------------------------------|
|-----------------------------------------------------------|
|--0--------------------------------------------0-0---------|
|--0--------------------------------------------0-0---------|
|--0--------------------------------------------0-0-----14/-|


RESTTTT


Short Interlude (1:21)
|------------------------------|
|------------------------------|
|---------------------------8*-|
|--00000000-0~--00000000-0~----|
|--00000000-0~--00000000-0~----|
|--00000000-0~--00000000-0~----|
PM ******** *   ******** *

VERSE (1:26)
|---------------------------------------------|
|---------------------------------------------|
|---------------------------------------------|  X2
|-000-00000-0000-000000-000-00000-0000-00000--|
|-000-00000-0000-000000-000-00000-0000-00000--|
|-000-00000-0000-000000-000-00000-0000-00000--|
|
|------------------------------------------------------------------------|
|------------------------------------------------------------------------|
|-0h7h10-0h7h10-0h7h10-0h7h10-0h7h10p7-----------------------------------|X2
|------------------------------------0h7h10-0h7h10-0h7h10-0h7h10-0h7h10p7|
|------------------------------------------------------------------------|
|------------------------------------------------------------------------|

PLAY PRE-CHORUS

PLAY CHORUS TWICE


   
BEFORE THE SOLO (2:12)
|------------|
|------------|
|------------|  if you have a wammy bar, slam it down.
|------------|  if you dont, then slide from the 7 to the neck.
|------------|
|----7-------|



SOLO (2:15)
|--------------------------------------------------------|
|--8-10-8-------8-10-8--------8-10-8----11-10-8----8-10--|
|---------10-----------10------------10---------10-------|
|--------------------------------------------------------|
|--------------------------------------------------------|
|--------------------------------------------------------|
CONTINUED (2:24)
|--15-17-15--------17b-15-------------------------------------|
|-----------18\------------17b\-------------------------------|
|---------------------------------------9----------12---------|
|---------------------------------12---------121415-----------|
|-------------------------------------------------------------|
|-------------------------------------------------------------|
CONTINUED 
|-------------------------------------------------------------|
|-------------------------------------------------------------|
|----------------------------19b------------------------------|
|--121415121415-----------------------------------------------|
|-------------------------------------------------------------|
|-------------------------------------------------------------|

 
RHYTHM TO SOLO (2:15-2:34)
|--------------------------------------------------------|
|--------------------------------------------------------| 
|777777777777733333333333333---------33333333333333333333|   X2
|77777777777773333333333333355555555533333333333333333333|
|55555555555551111111111111155555555511111111111111111111|
|---------------------------555555555--------------------|

PLAY PRE-CHORUS (2:34-2:52)

REST! (2:52-2:57)

PLAY CHORUS (2:57-3:35) FOUR TIMES

OUTRO (3:35)
|----------------------------------------------|
|----------------------------------------------|
|----------------------------------------------|
|--00-000000000-000000000-000000000-000000000--|
|--00-000000000-000000000-000000000-000000000--|
|--00-000000000-000000000-000000000-000000000--|
PM ** ********* ********* ********* *********
Tap to rate this tab
# A B C D E F G H I J K L M N O P Q R S T U V W X Y Z