Song name
# A B C D E F G H I J K L M N O P Q R S T U V W X Y Z

Atreyu - Falling Down tab

Tabbed: RowdyGuitarist
Email: RowdyGuitarist@hotmail.com
Tuning: Drop C (DAFCGC)
Please rate and comment.


Section 1 (Bridge PickUp)
|------------17-----|
|-9------------16---|
|-12b--17b-17-------|
|-------------------|
|-------------------|
|-------------------|

Section 2 (Neck PickUp)
|-20-19-17----17----------------20--------|
|----------20----20-20b-20p19p17----------|
|----------------------------------17-----|
|-----------------------------------------|
|-----------------------------------------|
|-----------------------------------------|


 Section 3 (Bridge PickUp)
|-5p0-----------------------------------------|
|-----8-7p5---5-------------------------------|
|-----------7---7b-5----7-5-------------------|
|--------------------7--------7-5-------------|
|----------------------------------7-5-5\3----|
|---------------------------------------------| 
                              * *  * * * *

Section 4 (Neck PickUp)
|-15p13---17p15---19p17---20p17----20-19-17----------|
|------15------17------19------20-----------20b~-----|
|----------------------------------------------------|
|----------------------------------------------------|
|----------------------------------------------------|
|----------------------------------------------------| 


Section 5 (Bridge PickUp)
|-17b~-----------|
|-------10b~-----|
|----------------|
|----------------|
|----------------|
|----------------|

Tap to rate this tab
# A B C D E F G H I J K L M N O P Q R S T U V W X Y Z