Song name
# A B C D E F G H I J K L M N O P Q R S T U V W X Y Z

Atreyu - My Fork In The Road Your Knife In My Back tab

Song: My Fork in the Road (Your Knife in my Back) (solo)
		  Artist: Atreyu
		      Album:  A Death Grip on Yesterday

				Tuning Dropped C (C-G-C-F-A-D)

D|-------------------------------------------------------|
A|--5b----5b---------------------------------------------|
F|--5b----5b---------5b----------5h7p5-------------------|
C|-----7------7--5-7------7-5-7---------7-5--------------|
G|------------------------------------------7-5-3-3b-0---|
C|-------------------------------------------------------|
                                        . . . . .

                      T         T           T         T         T
D|-------5---------|-10-5h7h8--10-8p7p5h7--10-5h7h8--10-8p7p5-----------------|
A|-----5---5--8b-8-|-------------------------------------------10-8p7p5--8b-8-|
F|--7b-------------|----------------------------------------------------------|
C|-----------------|----------------------------------------------------------|
G|-----------------|----------------------------------------------------------|
C|-----------------|----------------------------------------------------------|

D|---------17--------------|----------------------17-19-20-20p19p17-----17---------|
A|------17----20p17--------|------------17-19-20---------------------20----20b-----|
F|--19b---------------(x4)-|--16-17-19-----------------------------------------17--|
C|-------------------------|-------------------------------------------------------|
G|-------------------------|-------------------------------------------------------|
C|-------------------------|-------------------------------------------------------|

                                            T
D|-----------------------8-12p8p5----------------|
A|---------------------10---------5--------------|
F|--------------------9-------------7-5-7b-12p9--|
C|--9h10p9----------10---------------------------|
G|----------12-8-12------------------------------|
C|-----------------------------------------------|


Thats just about it.  I'm pretty sure that its 99.9% correct.  Leave some comments 
rate it.  thanks
Tap to rate this tab
 
# A B C D E F G H I J K L M N O P Q R S T U V W X Y Z