Song name
# A B C D E F G H I J K L M N O P Q R S T U V W X Y Z

Atreyu - Exs And Ohs tab

|-12-------------12-0-0----------------------------------------------------|
|-15b--12--12-13--------12-0-0-8-0-7-0-0-8-0-0-7-0-------------------------|
|--------------------------------------------------9--7--4-----------------|
|--------------------------------------------------------------------------|
|--------------------------------------------------------------------------|
|--------------------------------------------------------------------------|

|-----5\7---------9\12---------12\15----------15\17------------------------|
|---3-----5-----7------10---10-------13----13-------15--15-15-15--15-15----|
|-2---------4\5-----------9-------------12---------------------------------|
|--------------------------------------------------------------------------|
|--------------------------------------------------------------------------|
|--------------------------------------------------------------------------|

                    t  t  t  t    t  t  t  t    t  t  t  t t  t
|--------------------------------------------------------------------------|
|-16--16-16-15\12---17-10-12-13---17-13-12-10------------------------------|
|-----------------------------------------------16-12-11-9-11-12-----------|
|--------------------------------------------------------------------------|
|--------------------------------------------------------------------------|
|--------------------------------------------------------------------------|

  t  t  t  t   t  t  t    t  t  t  t   t  t  t  t   t  t  t
|--------------------------------------------------------------------------|
|--------------------------------------------------------------------------|
|-14-12-11-9---------------------------------------------------------------|
|--------------14-10-12---14-12-10-9---------------------------------------|
|--------------------------------------14-10-12-9--------------------------|
|---------------------------------------------------14-12-10---------------|

    .      . .     
|--------------------------------------------------------------------------|
|--------------8-7---------------------------------------------------------|
|------------------9-------------------------------------------------------|
|-----10-9-----------9-10(p.h.)--------------------------------------------|
|-7-7------7-7-------------------------------------------------------------|
|--------------------------------------------------------------------------|

|----12-15-12----12-17-12----12-15-12----12-17-12----12-12-17\19-----------|
|-15----------15----------15----------15----------15-----------------------|
|--------------------------------------------------------------------------|
|--------------------------------------------------------------------------|
|--------------------------------------------------------------------------|
|--------------------------------------------------------------------------|

|---------14(w.bar)--12~---------------------------------------------------|
|--------------------------------------------------------------------------|
|-4(p.h.)------------------------------------------------------------------|
|--------------------------------------------------------------------------|
|--------------------------------------------------------------------------|
|--------------------------------------------------------------------------|

|-----------------------------------------------------12-------------------|
|-15-13-12----------15-13-12----------15-13-12--------15b------------------|
|----------14-12-11----------14-12-11----------14-12-----------------------|
|--------------------------------------------------------------------------|
|--------------------------------------------------------------------------|
|--------------------------------------------------------------------------|
Tap to rate this tab
# A B C D E F G H I J K L M N O P Q R S T U V W X Y Z