Song name
# A B C D E F G H I J K L M N O P Q R S T U V W X Y Z

Atreyu - Storm To Pass tab

============================================================================

                           Storm to Pass
 
                              Atreyu

============================================================================


Tabbed by: John Moores
           mooresjw@mail.uc.edu

Tuning: Drop C  (CGCFAD)


 *  = Palm Mute
 @  = Pinched harmonic
 x  = muted
(5) = natural harmonic on said fret



Intro


Guitar I

0:00       0:11     0:13   0:17    0:20    0:23
|-----------------------------------------------------|
|-----------------------------------------------------|
|---9~~~---12~~~~---9~~~---12~~~----9~~~---12~~~------|
|-----------------------------------------------------|
|-----------------------------------------------------|
|-----------------------------------------------------|

This part continues to play through the intro, and stops
at the beginning of the verse.


Guitar II  (clean)
0:07
|-----------------------------------------------------------------|
|-----------------------------------------------------------------|
|-------12--------------12-----------------12----12----12---------|
|---14-----14------14------14---14----14-----14----14----14---14--|  x4
|-12--12------12-12---12------12---12----12----12----12----12-----|
|-----------------------------------------------------------------|


Guitar III  (clean)
0:13
|---------------------------------------------------------|
|---------------------------------------------------------|
|--------0-----------0------------5-----5-----5-5h7p5\4h5-|
|----2-----2-----2-----2------3-----3-----3---------------|  x3
|--0---0-----0-0---0------0-0---0-----0-----0-------------|
|---------------------------------------------------------|


Verse 1
0:33

Guitar I
|---------------------------------------------------------|
|---------------------------------------------------------|
|--------0-----------0------------5-----5-----------------|
|----2-----2-----2-----2------3-----3-----3---3-3h5p3\2h3-|  x2
|-000--0-----000---0------000---0-----0-----0-------------|
|---------------------------------------------------------|

Guitar II  (distorted)
0:33                   0:36
|-----------------------------------------------------|
|-----------------------------------------------------|
|-----------------------------------------------------|
|-2-2-2-2-2-2-2-2-2-2-2-------------------------------|   x2
|-0-0-0-0-0-0-0-0-0-0-0-3-3-3-3-3-3-3-3-3-3-3-3-3-3-3-|
|-----------------------3-3-3-3-3-3-3-3-3-3-3-3-3-3-3-|
  * * * * * * * * * * * * * * * * * * * * * * * * * *


Pre-chorus
0:46

Guitar I
|-/13--12-12-10---/13--12-12-----/12--10-10-8--/13--12-12--|
|----------------------------13----------------------------|
|----------------------------------------------------------|
|----------------------------------------------------------|
|----------------------------------------------------------|
|----------------------------------------------------------|

|-/13--12-12-10---/13--12-12-------------------------------|
|----------------------------13----------------------------|
|----------------------------------------------------------|
|----------------------------------------------------------|
|----------------------------------------------------------|
|----------------------------------------------------------|


Guitar II
|-----------------------------------------------------|
|-----------------------------------------------------|
|-----------------------------------------------------|
|--0------3-----7----10-------0-----3----7-----5------|
|--0------3-----7----10-------0-----3----7-----5------|
|--0------3-----7----10-------0-----3----7-----5------|


Chorus
0:58

Guitar I   (not the exact strum pattern)
|-----------------------------------------------------|
|-----------------------------------------------------|
|--17-17-17---12-12-12--14-14-14---10--9--7-----------|
|-----------------------------------------------------|
|--15-15-15---10-10-10--12-12-12---8---7--5-----------|
|-----------------------------------------------------|
                                                          x2
|-----------------------------------------------------|
|-----------------------------------------------------|
|--17-17-17---12-12-12--14-14-14---16-16-16-----------|
|-----------------------------------------------------|
|--15-15-15---10-10-10--12-12-12---14-14-14-----------|
|-----------------------------------------------------|


Guitar II
|-----------------------------------------------------|
|-----------------------------------------------------|
|-----------------------------------------------------|
|-7-7-7-7-7--2-2-2-2-2--3-3-3-3-3--0-0-0-0-0-0-0------|
|-7-7-7-7-7--2-2-2-2-2--3-3-3-3-3--0-0-0-0-0-0-0------|
|-7-7-7-7-7--2-2-2-2-2--3-3-3-3-3--0-0-0-0-0-0-0------|
                                                          x2
|-----------------------------------------------------|
|-----------------------------------------------------|
|-----------------------------------------------------|
|-7-7-7-7-7--2-2-2-2-2--3-3-3-3-3--5-5-5-5-5-5-5------|
|-7-7-7-7-7--2-2-2-2-2--3-3-3-3-3--5-5-5-5-5-5-5------|
|-7-7-7-7-7--2-2-2-2-2--3-3-3-3-3--5-5-5-5-5-5-5------|


Post-chorus
1:24

Guitar I (distorted)
|---------------------------------|
|---------------------------------|
|--------0----------------0-------|
|----2-----2---------2-------2----|
|-000--0---------000---0-------0--|
|---------------------------------|


Guitar II  (clean)
|---------------------------------|
|---------------------------------|
|-------12--------------12--------|
|---14-----14------14------14-----|
|-12--12------12-12---12------12--|
|---------------------------------|

Verse 2
1:27

Guitar I
|---------------------------------------------------------|
|---------------------------------------------------------|
|--------0-----------0------------5-----5-----5-5h7p5\4h5-|
|----2-----2-----2-----2------3-----3-----3---------------|  x2
|-000--0-----000---0------000---0-----0-----0-------------|
|---------------------------------------------------------|

Guitar II
|-----------------------------------------------------|
|-----------------------------------------------------|
|-----------------------------------------------------|
|-2-2-2-2-2-2-2-2-2-2-2-------------------------------|   x2
|-0-0-0-0-0-0-0-0-0-0-0-3-3-3-3-3-3-3-3-3-3-3-3-3-3-3-|
|-----------------------3-3-3-3-3-3-3-3-3-3-3-3-3-3-3-|
  * * * * * * * * * * * * * * * * * * * * * * * * * *


Pre-Chorus
1:40


Guitar I
|-/13--12-12-10---/13--12-12-----/12--10-10-8--/13--12-12--|
|----------------------------13----------------------------|
|----------------------------------------------------------|
|----------------------------------------------------------|
|----------------------------------------------------------|
|----------------------------------------------------------|

|-/13--12-12-10---/13--12-12-------------------------------|
|----------------------------13----------------------------|
|----------------------------------------------------------|
|----------------------------------------------------------|
|----------------------------------------------------------|
|----------------------------------------------------------|


Guitar II
|-----------------------------------------------------|
|-----------------------------------------------------|
|-----------------------------------------------------|
|--0------3-----7----10-------0-----3----7-----5------|
|--0------3-----7----10-------0-----3----7-----5------|
|--0------3-----7----10-------0-----3----7-----5------|


Chorus
1:53

Guitar I   (not the exact strum pattern)
|-----------------------------------------------------|
|-----------------------------------------------------|
|--17-17-17---12-12-12--14-14-14---10--9--7-----------|
|-----------------------------------------------------|
|--15-15-15---10-10-10--12-12-12---8---7--5-----------|
|-----------------------------------------------------|
                                                          x2
|-----------------------------------------------------|
|-----------------------------------------------------|
|--17-17-17---12-12-12--14-14-14---16-16-16-----------|
|-----------------------------------------------------|
|--15-15-15---10-10-10--12-12-12---14-14-14-----------|
|-----------------------------------------------------|


Guitar II
|-----------------------------------------------------|
|-----------------------------------------------------|
|-----------------------------------------------------|
|-7-7-7-7-7--2-2-2-2-2--3-3-3-3-3--0-0-0-0-0-0-0------|
|-7-7-7-7-7--2-2-2-2-2--3-3-3-3-3--0-0-0-0-0-0-0------|
|-7-7-7-7-7--2-2-2-2-2--3-3-3-3-3--0-0-0-0-0-0-0------|
                                                          x2
|-----------------------------------------------------|
|-----------------------------------------------------|
|-----------------------------------------------------|
|-7-7-7-7-7--2-2-2-2-2--3-3-3-3-3--5-5-5-5-5-5-5------|
|-7-7-7-7-7--2-2-2-2-2--3-3-3-3-3--5-5-5-5-5-5-5------|
|-7-7-7-7-7--2-2-2-2-2--3-3-3-3-3--5-5-5-5-5-5-5------|


Break
2:18
Guitar I
|--------------------------------------------|
|--------------------------------------------|
|-10101012-12-12-14-14-14-16-16-16--16-16-16-|
|--------------------------------------------|
|-8-8-8-10-10-10-12-12-12-14-14-14--14-14-14-|
|--------------------------------------------|

Guitar II
|---------------------------------------------------|
|---------------------------------------------------|
|---------------------------------------------------|
|-0-0-0--2-2-2--3-3-3--5-5-5--5--5-5-5--------------|
|-0-0-0--2-2-2--3-3-3--5-5-5--5--5-5-5--------------|
|-0-0-0--2-2-2--3-3-3--5-5-5--5--5-5-5--------------|


Guitar I
|-----------------------------------------------------|
|-----------------------------------------------------|
|-16--17-17--16-17----17-17-16-16-17-17-1616-17-16-17-|
|-----------------------------------------------------|
|-14--15-15--14-15----15-15-14-14-15-15-1414-15-14-15-|
|-----------------------------------------------------|

|------------------------------|
|------------------------------|
|-17-17--16-16-17\\------------|
|------------------------------|
|-15-15--14-14-15\\------------|
|------------------------------|


Guitar II
|-----------------------------------------------------|
|-----------------------------------------------------|
|-----------------------------------------------------|
|--5---7--7--5---7----7--7--5-5---7--7--5-5--7--5--7--|
|--5---7--7--5---7----7--7--5-5---7--7--5-5--7--5--7--|
|--5---7--7--5---7----7--7--5-5---7--7--5-5--7--5--7--|

|-------------------------------|
|-------------------------------|
|-------------------------------|
|--7--7---5-5--7\\--------------|
|--7--7---5-5--7\\--------------|
|--7--7---5-5--7\\--------------|


Pre-Solo
2:28 

Guitar I
|-------------------------------------------------------|
|-13-13-13-15-15-15-17-17-17-18-18-18-20-20-20-22-22-22-|
|-------------------------------------------------------|
|-10-10-10-12-12-12-14-14-14-15-15-15-17-17-17-19-19-19-|
|-------------------------------------------------------|
|-------------------------------------------------------|

Guitar II
|-----------------------------------------------------|
|-----------------------------------------------------|
|-----------------------------------------------------|
|-2-2-2-4-4-4-5-5-5-7-7-7-9-9-9-10-10-10-10-10--------|
|-0-0-0-2-2-2-3-3-3-5-5-5-7-7-7-8--8--8--8--8---------|
|-----------------------------------------------------|

Solo  (Still working on it)
2:34

|-----------------------------------------------------|
|-----------------------------------------------------|
|-----------------------------------------------------|
|-----------------------------------------------------|
|-----------------------------------------------------|
|-----------------------------------------------------|


Solo Rhythm
2:34
|---------------------------------------|     |-------|
|---------------------------------------|     |-------|
|--------------------7------10----------|     |-------|
|--7--------10-------7------10----------|  x2 |---7---|
|--7--------10-------5------8-----------|     |---7---|
|--7--------10--------------------------|     |---7---|


Bridge
3:00

Guitar I  (clean)
|-----------------------------------------------------------------|
|-----------------------------------------------------------------|
|-------12--------------12-----------------12----12----12---------|
|---14-----14------14------14---14----14-----14----14----14---14--|  x2
|-12--12------12-12---12------12---12----12----12----12----12-----|
|-----------------------------------------------------------------|

Guitar II (clean)
|---------------------------------------------------------|
|---------------------------------------------------------|
|--------0-----------0------------5-----5-----5-5h7p5\4h5-|
|----2-----2-----2-----2------3-----3-----3---------------|  x2
|--0---0-----0-0---0------0-0---0-----0-----0-------------|
|---------------------------------------------------------|

Guitar III (pretty much Guitar I, just Guitar I is dubbed here)
|--/20--19---17--15----|
|----------------------|
|----------------------|
|----------------------|
|----------------------|
|----------------------|

Guitar II (pretty much Guitar II, just Guitar I is dubbed here)
|--/17--15---13--12----|
|----------------------|
|----------------------|
|----------------------|
|----------------------|
|----------------------|

Chorus
3:13

Guitar I   (not the exact strum pattern)
|-----------------------------------------------------|
|-----------------------------------------------------|
|--17-17-17---12-12-12--14-14-14---10--9--7-----------|
|-----------------------------------------------------|
|--15-15-15---10-10-10--12-12-12---8---7--5-----------|
|-----------------------------------------------------|
                                                          x2
|-----------------------------------------------------|
|-----------------------------------------------------|
|--17-17-17---12-12-12--14-14-14---16-16-16-----------|
|-----------------------------------------------------|
|--15-15-15---10-10-10--12-12-12---14-14-14-----------|
|-----------------------------------------------------|


Guitar II
|-----------------------------------------------------|
|-----------------------------------------------------|
|-----------------------------------------------------|
|-7-7-7-7-7--2-2-2-2-2--3-3-3-3-3--0-0-0-0-0-0-0------|
|-7-7-7-7-7--2-2-2-2-2--3-3-3-3-3--0-0-0-0-0-0-0------|
|-7-7-7-7-7--2-2-2-2-2--3-3-3-3-3--0-0-0-0-0-0-0------|
                                                          x2
|-----------------------------------------------------|
|-----------------------------------------------------|
|-----------------------------------------------------|
|-7-7-7-7-7--2-2-2-2-2--3-3-3-3-3--5-5-5-5-5-5-5------|
|-7-7-7-7-7--2-2-2-2-2--3-3-3-3-3--5-5-5-5-5-5-5------|
|-7-7-7-7-7--2-2-2-2-2--3-3-3-3-3--5-5-5-5-5-5-5------|



Ending
3:38

Guitar I
|-----------------------------------------------------|
|-----------------------------------------------------|
|-16--17-17--16-17--------17-17--16--17-17--16-17-----|
|-----------------------------------------------------|
|-14--15-15--14-15--------15-15--14--15-15--14-15-----|
|-----------------------------------------------------|

|-----------------------------------------------------|
|-----------------------------------------------------|
|--17-17--16--17\\\-----------------------------------|
|-----------------------------------------------------|
|--15-15--14--15\\\-----------------------------------|
|-----------------------------------------------------|


Guitar II
|-----------------------------------------------------|
|-----------------------------------------------------|
|-----------------------------------------------------|
|--5---7--7--5---7---------7--7---5---7--7--5--7------|
|--5---7--7--5---7---------7--7---5---7--7--5--7------|
|--5---7--7--5---7---------7--7---5---7--7--5--7------|

|-----------------------------------------------------|
|-----------------------------------------------------|
|-----------------------------------------------------|
|--7--7---5---7---------------------------------------|
|--7--7---5---7---------------------------------------|
|--7--7---5---7---------------------------------------|

Tap to rate this tab
 
# A B C D E F G H I J K L M N O P Q R S T U V W X Y Z