Song name
# A B C D E F G H I J K L M N O P Q R S T U V W X Y Z

Atreyu - You Were The King Now Youre Unconscious tab

-------------------------------------------------------------------------------
		You Were The King, Now You're Unconscious  - Atreyu
-------------------------------------------------------------------------------
Tabbed by:PT-E
Email:

Tuning:Drop C

the lead guitar from chorus is still missing


Intro
 1x                  7x
|-------------------|-----------------------|
|-------------------|-----------------------|
|-------------------|-----------------------|
|-0---------0-0-0-0-|-1--0--------0-0-0-0---|
|-0---------0-0-0-0-|-1--0--------0-0-0-0---|
|-0----12\--0-0-0-0-|-1--0---12\--0-0-0-0---|
            x x x                 x x x 
Intro (part2)
 2x
|---------------------------------------------------------------------------|
|---------------------------------------------------------------------------|
|---------------------------------------------------------------------------|
|---------------------------------------------------------------------------|
|---------------------------------------------------------------------------|
|-0-0-12-0-0-15-0-0-12-0-0-12\11-11-11-11-11-12\8-8-8-8-8-------------------|

|---------------------------------------------------------------------------|
|---------------------------------------------------------------------------|
|---------------------------------------------------------------------------|
|---------------------------------------------------------------------------|
|---------------------------------------------------------------------------|
|-0-0-12-0-0-15-0-0-12-0-0 12p11-0-11p10-0-10p8-o-8p7-----------------------|

Verse
Guitar 1
|---------------------------------------------------------------------------|
|---------------------------------------------------------------------------|
|-7-7-7-7-7-7-7-7-7-7-7-7-7-7-7-5-5-5-5-5-5-5-5-5-5-3-3-3-3-3-3-3-3-3-3-3---|
|-x-x-x-x-x-x-x-x-x-x-x-x-x-x-x-x-x-x-x-x-x-x-x-x-x-x-x-x-x-x-x-x-x-x-x-x---|
|-5-5-5-5-5-5-5-5-5-5-5-5-5-5-5-3-3-3-3-3-3-3-3-3-3-1-1-1-1-1-1-1-1-1-1-1---|
|---------------------------------------------------------------------------|
Guitar 2
|--------------------------------------------------------------------------|
|--------------------------------------------------------------------------|
|--------------------------------------------------------------------------|
|-0--0--0--0-0-0-0---0--0--0-0-0-0---0--0--0-0-0--0--0--0-0-0--0--0--0-0-0-|
|-0--0--0--0-0-0-0---0--0--0-0-0-0---0--0--0-0-0--0--0--0-0-0--0--0--0-0-0-|
|-0--0--0--0-0-0-0---0--0--0-0-0-0---0--0--0-0-0--0--0--0-0-0--0--0--0-0-0-|
     x  x  x x x     x  x  x x x     x  x  x x x  x  x  x x x  x  x  x x x

Guitar 1
|---------------------------------------------------------------------------|
|---------------------------------------------------------------------------|
|-7-7-7-7-7-7-7-7-7-7-7-7-7-7-7--5--------9----10----15---14----------------|
|-x-x-x-x-x-x-x-x-x-x-x-x-x-x-x--x--------x----x-----x----x-----------------|
|-5-5-5-5-5-5-5-5-5-5-5-5-5-5-5--3--------7----8-----13---12----------------|
|---------------------------------------------------------------------------|
Guitar 2
|---------------------------------------------------------------------------|
|---------------------------------------------------------------------------|
|--------------------------------5~------------------3~---------------------|
|-0--0--0--0-0-0-0---0--0--0-0-0-5~------------------3~---------------------|
|-0--0--0--0-0-0-0---0--0--0-0-0-3~------------------1~---------------------|
|-0--0--0--0-0-0-0---0--0--0-0-0--------------------------------------------|
     x  x  x x x     x  x  x x x

Guitar 1
|---------------------------------------------------------------------------|
|---------------------------------------------------------------------------|
|-7-7-7-7-7-7-7-7-7-7-7-7-7-7-7-5-5-5-5-5-5-5-5-5-5-3-3-3-3-3-3-3-3-3-3-3---|
|-x-x-x-x-x-x-x-x-x-x-x-x-x-x-x-x-x-x-x-x-x-x-x-x-x-x-x-x-x-x-x-x-x-x-x-x---|
|-5-5-5-5-5-5-5-5-5-5-5-5-5-5-5-3-3-3-3-3-3-3-3-3-3-1-1-1-1-1-1-1-1-1-1-1---|
|---------------------------------------------------------------------------|
Guitar 2
|--------------------------------------------------------------------------|
|--------------------------------------------------------------------------|
|--------------------------------------------------------------------------|
|-0--0--0--0-0-0-0---0--0--0-0-0-0---0--0--0-0-0--0--0--0-0-0--0--0--0-0-0-|
|-0--0--0--0-0-0-0---0--0--0-0-0-0---0--0--0-0-0--0--0--0-0-0--0--0--0-0-0-|
|-0--0--0--0-0-0-0---0--0--0-0-0-0---0--0--0-0-0--0--0--0-0-0--0--0--0-0-0-|
     x  x  x x x     x  x  x x x     x  x  x x x  x  x  x x x  x  x  x x x

Pre-chorus
|---------------------------------------|
|---------------------------------------|
|-3-------------5------6----------------|
|-3-------------5------6----------------|
|-1-------------3------4----------------|
|---------------------------------------|

Chorus 2x
|-------------------------------------|--------------------------------------|
|-------------------------------------|--------------------------------------|
|-3--------------------2--------------|-3----------------2-2-2-2-2-2-2-2-2---|
|-3---------3----------2-----------0--|-3--------3-------2-2-2-2-2-2-2-2-2---|
|-1---------3----------0-----------0--|-1--------3-------0-0-0-0-0-0-0-0-0---|
|-----------3----------------------0--|----------3---------------------------|


Intro (part2) 1x


Verse 5x 


Chorus 2x



Guitar 2
 1x                  8x
|------------------|-----------------------|
|------------------|-----------------------|
|------------------|-----------------------|
|-0--------0-0-0-0-|-1--0--------0-0-0-0---|
|-0--------0-0-0-0-|-1--0--------0-0-0-0---|
|-0---12\--0-0-0-0-|-1--0---12\--0-0-0-0---|
           x x x                 x x x 

Guitar 1 3x
|------------------------------------------------------|
|------------------------------------------------------|
|------------------------------------------------------|
|-0-0-12-0-0-15-0-0-12-0-0-15-0-0-12-0-0-14-0-0-12-0-0-|
|------------------------------------------------------|
|------------------------------------------------------|
Guitar 3 1x
|------------------------------------------------------|
|------------------------------------------------------|
|------------------------------------------------------|
|-0-0-15-0-0-19-0-0-15-0-0-19-0-0-15-0-0-17-0-0-15-0-0-|
|------------------------------------------------------|
|------------------------------------------------------|

Guitar 1
|----------------------------------------------------------|
|---------------------------------------------------15-----|
|----------------------------------------12---12h14--------|
|-0-0-12-0-0-15-0-0-12-0-0-12h14h15-14h15---15-------------|
|----------------------------------------------------------|
|----------------------------------------------------------|
Guitar 3
|----------------------------------------------------------|
|---------------------------------------------------15-----|
|-------------------------------14---14h15-14h15h17--------|
|-0-0-15-0-0-19-0-0-15-0-0-15h17---17----------------------|
|----------------------------------------------------------|
|----------------------------------------------------------|


Pre-chorus


Chorus 3x


Outro
|---------------------------------------------------------------------------|
|---------------------------------------------------------------------------|
|---------------------------------------------------------------------------|
|---------------------------------------------------------------------------|
|---------------------------------------------------------------------------|
|-0-0-12-0-0-15-0-0-12-0-0-12\11-11-11-11-11-12\8-8-8-8-8-------------------|

|---------------------------------------------------------------------------|
|---------------------------------------------------------------------------|
|---------------------------------------------------------------------------|
|-------------------------------------------------------------0-------------|
|-------------------------------------------------------------0-------------|
|-0-0-12-0-0-15-0-0-12-0-0 12p11-0-11p10-0-10p8-o-8p7-0-3-3-3-0-------------|



| /  slide up
| \  slide down
| h  hammer-on
| p  pull-off
| +  harmonic
| x  Mute note
===============================================================================
Tap to rate this tab
# A B C D E F G H I J K L M N O P Q R S T U V W X Y Z