Song name
# A B C D E F G H I J K L M N O P Q R S T U V W X Y Z

Atreyu - Bleeding Is A Luxury tab

-------------------------------------------------------------------------------
			     Bleeding Is A - Band Name
-------------------------------------------------------------------------------
Tabbed by: Zach Brown (WoRm)
                Security In Wisdom: Rhythem


Tuning: DAFCGC

D|-----------------------------|
A|-----------------------------|
F|xxxxxxxxxxxxxxxxxxxxxxxxxxxx-|
C|-h10h12p0--h12/15p0--h12p0---|   4x
G|xxxxxxxxxxxxxxxxxxxxxxxxxxxx-|
C|-----------------------------|

D|xxxxxxxxxxxxxxxxxxxxxxxxxxxx-|
A|-h13h15p0--h15/19p0--h15p0---|
F|xxxxxxxxxxxxxxxxxxxxxxxxxxxx-|
C|-----------------------------|   2x
G|-----------------------------|
C|-----------------------------|

D|xxxxxxxxxxxxxxxxxxxxxxxxxxxx-|
A|-h10h13p0--h13/15p0--h13p0---|
F|xxxxxxxxxxxxxxxxxxxxxxxxxxxx-|
C|-----------------------------|   2x
G|-----------------------------|
C|-----------------------------|


   ~PRE-VERSE AND VERSE 1~

D|-------------------|----|----------------------|
A|-------------------|----|----------------------|
F|-7--X--9--X--10--X-|----|--10\9\7/9/10\9\7/9---|
C|-x--X--x--X---x--X-|-3x-|---x-x-x-x-x--x-x-x---|  2x
G|-5--X--7--X---8--X-|----|---8\7\5/7/-8\7\5\7---|
C|-------------------|----|----------------------|

D|-------------------|----|----------------------|
A|-------------------|----|----------------------|
F|-7--X--9--X--10--X-|----|--10\9\7/9/10\9\7/9---|
C|-x--X--x--X---x--X-|-3x-|---x-x-x-x-x--x-x-x---|
G|-5--X--7--X---8--X-|----|---8\7\5/7/-8\7\5\7---|
C|-------------------|----|----------------------|


D|---------------------------------------------------------|
A|---------------------------------------------------------|
F|---------------------------------------------------------|
C|-5-55555---3-333333---88888--7-777-7-777-7---------------|
G|-5-55555---3-333333---88888--7-777-7-777-7---------------|
C|-5-55555---3-333333---88888--7-777-7-777-7---------------|
                                 ...   ...
  (Repeat)

   ~CHORUS~

D|-----------------------------------------|
A|-----------------------------------------|
F|-----------------------------------------|
C|--0000000--7777777--8888888--5555555-----| 2x
G|--0000000--7777777--8888888--5555555-----|
C|--0000000--7777777--8888888--5555555-----|

   ~IDK WHAT THIS THING IS~

D|---------------------------------|-----------------------------------|
A|---------------------------------|-----------------------------------|
F|---------------------------------|-----------------------------------|
C|--0-X---0-X----4--2--0--4--2--0--|--0-X---0-X----4--2--0--///12------|
G|--0-X---0-X----4--2--0--4--2--0--|--0-X---0-X----4--2--0--///12------|
C|--0-X---0-X----4--2--0--4--2--0--|--0-X---0-X----4--2--0--///12------|
                 .  .  .  .  .  .                  .  .  .

   ~VERSE 2~
D|-------------------|----|----------------------|
A|-------------------|----|----------------------|
F|-7--X--9--X--10--X-|----|--10\9\7/9/10\9\7/9---|
C|-x--X--x--X---x--X-|-3x-|---x-x-x-x-x--x-x-x---|
G|-5--X--7--X---8--X-|----|---8\7\5/7/-8\7\5\7---|
C|-------------------|----|----------------------|


D|---------------------------------------------------------|
A|---------------------------------------------------------|
F|---------------------------------------------------------|
C|-5-55555---3-333333---88888--7-777-7-777-7---------------|
G|-5-55555---3-333333---88888--7-777-7-777-7---------------|
C|-5-55555---3-333333---88888--7-777-7-777-7---------------|
                                 ...   ...

   (Repeat)

   ~CHORUS~

  ~BREAKDOWN~

D|----------------------------|---------------------|
A|----------------------------|---------------------|
F|----------------------------|---------------------|
C|-0000-00000-00000--0000-000-|---I still haven't---| 2x
G|-0000-00000-00000--0000-000-|-------figured-------|
C|-0000-00000-00000--0000-000-|----this part out.---|
   .... ..... .....  .... ...

D|----------------------------|-------|
A|----------------------------|-------|
F|----------------------------|-------|
C|-3333-33333-33333--3333-333-|--8\1--|
G|-3333-33333-33333--3333-333-|--8\1--|
C|-3333-33333-33333--3333-333-|--8\1--|
   .... ..... .....  .... ...

D|----------------------------|--------------|
A|----------------------------|--------------|
F|----------------------------|--------------|
C|-0000-00000-00000--0000-000-|--8\1--0~~~---|
G|-0000-00000-00000--0000-000-|--8\1--0~~~---|
C|-0000-00000-00000--0000-000-|--8\1--0~~~---|
   .... ..... .....  .... ...

   ~CHORUS~

D|----------------------------|--------------|
A|----------------------------|--------------|
F|----------------------------|--------------|
C|-0000-00000-00000--0000-000-|--8\1--0~~~---|
G|-0000-00000-00000--0000-000-|--8\1--0~~~---|
C|-0000-00000-00000--0000-000-|--8\1--0~~~---|
   .... ..... .....  .... ...

    I know some parts aren't 100% correct and I may be missing some things... But at 
this will get you going in the right direction. Thanks for checking out my tab. Let me know 
you think!!!
Tap to rate this tab
# A B C D E F G H I J K L M N O P Q R S T U V W X Y Z