Song name
# A B C D E F G H I J K L M N O P Q R S T U V W X Y Z

Atreyu - Bleeding Is A Luxury tab

Tabbed by: Zero
e-mail: guitar_junkie_0912@yahoo.com

I see most of you like playing the intro on one string (the C string),
I however prefer it on two different strings. I'll put both variations down.

Intro (your way)
D|----------------------------------------------|
A|----------------------------------------------|
F|----------------------------------------------|
C|-10H12-0-12/15-0-12-0-10H12-0-12/15-0-12-0----| X2
G|----------------------------------------------|
C|----------------------------------------------|

Intro lick (now with the band, plus an octave above) 
D|----------------------------------------------|
A|----------------------------------------------|
F|----------------------------------------------|
C|-10H12-0-12/15-0-12-0-10H12-0-12/15-0-12-0----|
G|----------------------------------------------|
C|----------------------------------------------|


D|----------------------------------------------|
A|----------------------------------------------|
F|----------------------------------------------|
C|-7H10-0-10/12-0-7-0-7H10-0-10/12-0-7-0--------|
G|----------------------------------------------|
C|----------------------------------------------|


D|----------------------------------------------|
A|----------------------------------------------|
F|----------------------------------------------|
C|-10H12-0-12/15-0-12-0-10H12-0-12/15-0-12-0----|
G|----------------------------------------------|
C|----------------------------------------------|

Intro (my way)
D|---------------------------------------|
A|---------------------------------------|
F|-5h7---7/10---7---5h7---7/10---7-------|
C|-----0------0---0-----0------0---0-----| x2
G|---------------------------------------|
C|---------------------------------------|

Intro Lick (now with band plus octave above)
D|---------------------------------------|
A|---------------------------------------|
F|-5h7---7/10---7---5h7---7/10---7-------|
C|-----0------0---0-----0------0---0-----| 
G|---------------------------------------|
C|---------------------------------------|

D|---------------------------------------|
A|---------------------------------------|
F|-2h5---5/7----2---2h5---5/7----2-------|
C|-----0------0---0-----0------0---0-----| 
G|---------------------------------------|
C|---------------------------------------|

D|---------------------------------------|
A|---------------------------------------|
F|-5h7---7/10---7---5h7---7/10---7-------|
C|-----0------0---0-----0------0---0-----| 
G|---------------------------------------|
C|---------------------------------------|



PRE VERSE/vERSE 1 (GUITAR 1)

D|---------------------|
A|---------------------|
F|-7------9------10----|
C|-0--0---0--0----0----|
G|---------------------|
C|---------------------|
      .      . 

D|---------------------------|
A|---------------------------|
F|---------------------------|
C|-10-9-7-9-10-9-7-----------|
G|-----------------10--------|
C|---------------------------|


STILL FIGURING OUT THE LITTLE BACKGROUND PART (IT'S SIMILAR TO THE PREVERSE)


PRE VERSE/VERSE 1 (GUITAR 2)
D|-------------|-------------------------|
A|-------------|-------------------------|
F|-10---5/7----|-------------------------|
C|-10---5/7----|---3-2-0-2-3-2-0---------|
G|--8---3/5----|-----------------3-------|
C|-------------|-------------------------|

D|---------------------------------------------------|
A|---------------------------------------------------|
F|---------------------------------------------------|
C|-0000-0000-0000-0000-0000-0000---3-2-0-2-3-2-0-----|
G|-0000-0000-0000-0000-0000-0000-----------------3---|
C|-0000-0000-0000-0000-0000-0000---------------------|
   .... .... .... .... .... ....

D|------------------------------------------------|
A|------------------------------------------------|
F|---------------------33333---5-555-5-555-5------|
C|-5-55555---3-333333--33333---7-777-7-777-7------|
G|-5-55555---3-333333--11111---4-444-4-444-4------|
C|-5-55555---3-333333-----------------------------|
                                 ...   ...
  
CHORUS (plus guitar 1 intro lick)

D|-----------------------------------------|
A|-----------------------------------------|
F|-----------2222222--3333333--------------|
C|--0000000--2222222--3333333--5555555-----| 
G|--0000000--0000000--1111111--5555555-----|
C|--0000000--------------------5555555-----|

PREVERSE 2

D|--------------------------------------------------------------|
A|--------------------------------------------------------------|
F|--------------------------------------------------------------|
C|--0----0-----3--2--0--3--2--0----0----0-----3--2--0--/12------|
G|--0----0-----3--2--0--3--2--0----0----0-----3--2--0--/12------|
C|--0----0-----3--2--0--3--2--0----0----0-----3--2--0--/12------|
               .  .  .  .  .  .               .  .  .

vERSE 2 (GUITAR 1)

D|---------------------|
A|---------------------|
F|-7------9------10----|
C|-0--0---0--0----0----|
G|---------------------|
C|---------------------|
      .      . 

D|---------------------------|
A|---------------------------|
F|---------------------------|
C|-10-9-7-9-10-9-7-----------|
G|-----------------10--------|
C|---------------------------|


VERSE 2 (GUITAR 2)
D|-------------|-------------------------|
A|-------------|-------------------------|
F|-10---5/7----|-------------------------|
C|-10---5/7----|---3-2-0-2-3-2-0---------|
G|--8---3/5----|-----------------3-------|
C|-------------|-------------------------|

D|---------------------------------------------------|
A|---------------------------------------------------|
F|---------------------------------------------------|
C|-0000-0000-0000-0000-0000-0000---3-2-0-2-3-2-0-----|
G|-0000-0000-0000-0000-0000-0000-----------------3---|
C|-0000-0000-0000-0000-0000-0000---------------------|
   .... .... .... .... .... ....

D|------------------------------------------------|
A|------------------------------------------------|
F|---------------------33333---5-555-5-555-5------|
C|-5-55555---3-333333--33333---7-777-7-777-7------|
G|-5-55555---3-333333--11111---4-444-4-444-4------|
C|-5-55555---3-333333-----------------------------|
                                 ...   ...


CHORUS AGAIN

SOLO GUITAR 1

D|-------------------------------------------------------------|
A|-------------------------------------------------------------|
F|-------------------------------------------------------------|
C|-8-7-5--8-7-5---7-5-3--7-5-3---7-5-3--7-5-3---2-3-2-5-3-2----|
G|-------------------------------------------------------------|
C|-------------------------------------------------------------|

(TREM PICKED)
D|----------------------------------------------------------|
A|--11-10-8--11-10-8----10-8-6--10-8-6----10-8-6--10-8-6----|
F|----------------------------------------------------------|
C|----------------------------------------------------------|
G|----------------------------------------------------------|
C|----------------------------------------------------------|

D|-------------------------------------10----------|
A|-5-6-8---6-8-10--8-10-11--10-11-13---13b(15)-----|
F|-------------------------------------------------|
C|-------------------------------------------------|
G|-------------------------------------------------|
C|-------------------------------------------------|

SOLO GUITAR 2

D|----------------------------------------|
A|----------------------------------------|
F|----------33333333-----------55555555---|
C|-55555555-33333333-33333333--55555555---|
G|-55555555-11111111-33333333--33333333---|
C|-55555555----------33333333-------------|




ORCHESTRATED BREAK

D|-------------------------------------------------------------|
A|-------------------------------------------------------------|
F|-------------------------------------------------------------|
C|-0-0-0-0---0-00000--0-00000--0-0-0-0--00---------------------|
G|-0-0-0-0---0-00000--0-00000--0-0-0-0--00---------------------|
C|-0-0-0-0---0-00000--0-00000--0-0-0-0--00--0-2-3-4-5-4-3-2-0--|
   . . . .   . .....  . .....  . . . .  ..

D|------------------------------------------------|
A|------------------------------------------------|
F|------------------------------------------------|
C|-3-3-3-3---3-33333--3-33333--3-3-3-3--33--------|
G|-3-3-3-3---3-33333--3-33333--3-3-3-3--33--------|
C|-3-3-3-3---3-33333--3-33333--3-3-3-3--33---8\1--|
   . . . .   . .....  . .....  . . . .  ..

D|-----------------------------------------------|
A|-----------------------------------------------|
F|-----------------------------------------------|
C|-0-0-0-0---0-00000--0-00000--0-0-0-0--00-------|
G|-0-0-0-0---0-00000--0-00000--0-0-0-0--00-------|
C|-0-0-0-0---0-00000--0-00000--0-0-0-0--00--8\1--|
   . . . .   . .....  . .....  . . . .  ..

(little intro lick then
CHORUS ONCE MORE)

play this last chorus
D|-----------------------------------------|
A|-----------------------------------------|
F|-----------2222222--3333333--5555555-----|
C|--0000000--2222222--3333333--5555555-----| 
G|--0000000--0000000--1111111--3333333-----|
C|--0000000--------------------------------|


Outro
D|--------------------------------------------------|
A|--------------------------------------------------|
F|--------------------------------------------------|
C|-0-0-0-0---0-00000--0-00000--0-0-0-0--00-------0--|
G|-0-0-0-0---0-00000--0-00000--0-0-0-0--00-------0--|
C|-0-0-0-0---0-00000--0-00000--0-0-0-0--00--8\1--0--|
   . . . .   . .....  . .....  . . . .  ..

Tap to rate this tab
# A B C D E F G H I J K L M N O P Q R S T U V W X Y Z