Song name
# A B C D E F G H I J K L M N O P Q R S T U V W X Y Z

Atreyu - Stop Before Its Too Late And Weve Destroyed It All tab

Stop! Before It's Too Late And We've Destroyed It All
By Atreyu
From the 2009 album 'Congregation of the Damned'

Tuning: Drop C (C G C F A D)

Intro (Play twice)
       T         T        T         T        T
D||--17p13p12--17p13p12-17p13p12--17p13p12-17p13p12-|
A||o------------------------------------------------|
F||-------------------------------------------------|
C||-------------------------------------------------|
G||o------------------------------------------------|
C||-------------------------------------------------|

       T         T        T         T        T
D|-17p13p12--17p13p12-17p13p12--17p13p12-17p13p12-|
A|------------------------------------------------|
F|------------------------------------------------|
C|------------------------------------------------|
G|------------------------------------------------|
C|------------------------------------------------|

       T         T        T         T        T
D|-15p13p12--15p13p12-15p13p12--15p13p12-15p13p12-|
A|------------------------------------------------|
F|------------------------------------------------|
C|------------------------------------------------|
G|------------------------------------------------|
C|------------------------------------------------|

D|-17p13----------------------------13h17-|
A|-------15----------------------15-------|
F|----------14----------------14----------|
C|-------------15----------15-------------|
G|----------------17-12-17----------------|
C|----------------------------------------|

       T         T        T         T        T
D|-17p13p12--17p13p12-17p13p12--17p13p12-17p13p12-|
A|------------------------------------------------|
F|------------------------------------------------|
C|------------------------------------------------|
G|------------------------------------------------|
C|------------------------------------------------|

D|-21~~21-21-19-17-19p17p15--||
A|--------------------------o||
F|---------------------------||
C|---------------------------||
G|--------------------------o||
C|---------------------------||

 Outro of intro 
D|-14-14----------|
A|-------14-14~~~~|
F|----------------|
C|----------------|
G|----------------|
C|----------------|

I don't really know if this is 100% or not; 
My guess would be that the 15p13p12 part is screwed up, 
but I'm not too sure. Corrections are welcome.

I'm working on the rest of the song, 
which is mostly palm muted open strings, 
but can't figure out the chorus or outro thing yet. 
I'll post it when it's done.

Legend (Only relevant items)
T = tapping
p = pull off
h = hammer on
~ = vibrato

That, then, is that.
Tap to rate this tab
 
# A B C D E F G H I J K L M N O P Q R S T U V W X Y Z