Song name
# A B C D E F G H I J K L M N O P Q R S T U V W X Y Z

Atreyu - Stop Before Its Too Late And Weve Destroyed It All tab

Tuning- Drop C
t - tap
p - pull off
h - hammer on
b - bend

   t          t       t          t      t
d-17-p13p10--17-p13--17-p13p10--17-p13-17-p13p10------|
a-----------------------------------------------------|
f-----------------------------------------------------| X2
c-----------------------------------------------------|
g-----------------------------------------------------|
c-----------------------------------------------------|

   t          t       t          t      t
d-15-p12p8---15-p12--15-p12p8---15-p12-15-p12p8-------|
a-----------------------------------------------------|
f-----------------------------------------------------|
c-----------------------------------------------------|
g-----------------------------------------------------|
c-----------------------------------------------------|


d--20p15----------------------------15h20-----------------|
a--------17----------------------17-----------------------|
f-----------17----------------17--------------------------|
c--------------17----------17-----------------------------|
g-----------------19-15h19--------------------------------|
c---------------------------------------------------------|

   t          t       t          t      t
d--20-p15p12--20-p15--20-p15p12--20-p15-20-p15p12-----|
a-----------------------------------------------------|
f-----------------------------------------------------| X2
c-----------------------------------------------------|
g-----------------------------------------------------|
c-----------------------------------------------------|

d--22b-22-22-22-20-19--20p19p17-----------------------|
a-----------------------------------------------------|
f-----------------------------------------------------|
c-----------------------------------------------------|
g-----------------------------------------------------|
c-----------------------------------------------------|


 t          t       t          t      t
d-17-p13p10--17-p13--17-p13p10--17-p13-17-p13p10------|
a-----------------------------------------------------|
f-----------------------------------------------------| X2
c-----------------------------------------------------|
g-----------------------------------------------------|
c-----------------------------------------------------|

   t          t       t          t      t
d-15-p12p8---15-p12--15-p12p8---15-p12-15-p12p8-------|
a-----------------------------------------------------|
f-----------------------------------------------------|
c-----------------------------------------------------|
g-----------------------------------------------------|
c-----------------------------------------------------|


d--20p15----------------------------15h20-----------------|
a--------17----------------------17-----------------------|
f-----------17----------------17--------------------------|
c--------------17----------17-----------------------------|
g-----------------19-15h19--------------------------------|
c---------------------------------------------------------|

   t          t       t          t      t
d--20-p15p12--20-p15--20-p15p12--20-p15-20-p15p12-----|
a-----------------------------------------------------|
f-----------------------------------------------------| X2
c-----------------------------------------------------|
g-----------------------------------------------------|
c-----------------------------------------------------|

d--22b-22-22-22-20-19--20p19p17--15-14----------------|
a--------------------------------------15-17----------|
f-----------------------------------------------------|
c-----------------------------------------------------|
g-----------------------------------------------------|
c-----------------------------------------------------|
Tap to rate this tab
# A B C D E F G H I J K L M N O P Q R S T U V W X Y Z