Song name
# A B C D E F G H I J K L M N O P Q R S T U V W X Y Z

Atreyu - Stop Before Its Too Late And Weve Destroyed It All chords

Hey this is my first tab so go easy, I wrote this tab based on this video
http://www.youtube.com/watch?v=ryFSEOwFT0o
Email corrections at jack.pearce6@gmail.com

Tuning: Drop C (CGCFAD)

Key:

h - hammer-on
p - pull-off
~ - vibrato
/\/ - wide vibrato
b - bend
TP - Tremolo Pick
. - Palm Mute
\\ - Slide down
() - ghost notes

Intro Solo

D|--13h17p13----13h17p13-13h17p13----13h17p13--------------| x2
A|-----------15-------------------15-----------------------|
F|---------------------------------------------------------|
C|---------------------------------------------------------|
G|---------------------------------------------------------|
C|---------------------------------------------------------|

D|--12h15p12----12h15p12-12h15p12----12h15p12--------------| x2
A|-----------13-------------------13-----------------------|
F|---------------------------------------------------------|
C|---------------------------------------------------------|
G|---------------------------------------------------------|
C|---------------------------------------------------------|

D|--20p15--------------------15h20--|
A|-------17----------------17-------|
F|---------17------------17---------|
C|-----------17--------17-----------|
G|-------------15h19p15-------------|
C|----------------------------------|

D|--15h20p15----15h20p15-15h20p15----15h20p15-15h20p15-----| x2
A|---------------------------------------------------------|
F|---------------------------------------------------------|
C|---------------------------------------------------------|
G|---------------------------------------------------------|
C|---------------------------------------------------------|

D|--22b-22-22-22-20-20h21p20---------|---------|
A|---------------------------20b-----|---------| Repeat intro 
F|-----------------------------------|-19-20~~-|  <- Play this second time
C|-----------------------------------|---------|
G|-----------------------------------|---------|
C|-----------------------------------|---------|

Verse

D|------------------------------------------------------------------| x4
A|------------------------------------------------------------------|
F|---------------------------------------14-14-12-12-9-10\\---------|
C|--0-0-0-0---0-0-0---0-0-0---0-0-0-0-----x--x--x--x-x--x-----------|
G|--0-0-0-0---0-0-0---0-0-0---0-0-0-0----12-12-10-10-7--8\\---------|
C|--0-0-0-0---0-0-0---0-0-0---0-0-0-0-------------------------------|
    . . . .   . . .   . . .   . . . . 

Pre-Chorus

D|-------------------------------------------------------|
A|-------------------------------------------------------|
F|---10-10-10-12-12-12-14-14-14-14-14-14-12-12-12-(12)---|
C|----x--x--x--x--x--x--x--x--x--x--x--x--x--x--x--(x)---|
G|----8--8--8-10-10-10-12-12-12-12-12-12-10-10-10-(10)---|
C|-------------------------------------------------------|


D|-------------------------------------------------------|
A|-------------------------------------------------------|
F|--12-12-12-12-14-14-14-14-15-15-15-15-17-17-17-17------|
C|---x--x--x--x--x--x--x--x--x--x--x--x--x--x--x--x------|
G|--10-10-10-10-12-12-12-12-13-13-13-13-15-15-15-15------|
C|-------------------------------------------------------|

Chorus

D|-----------------------------------| x2
A|-----------------------------------|
F|---7-(7)-7-(7)-7-(7)-7-9-10-9-7-5--|
C|---x-(x)-x-(x)-x-(x)-x-x--x-x-x-x--|
G|---5-(5)-5-(5)-5-(5)-5-7--8-7-5-3--|
C|-----------------------------------|


D|-------------------------------------------------|
A|-------------------------------------------------|
F|--10-(10)-10-(10)-10-(10)-10-12-14-12-10-10------|
C|---x--(x)--x--(x)--x--(x)--x--x--x--x--x--x------|
G|---8--(8)--8--(8)--8--(8)--8-10-12-10--8--8------|
C|-------------------------------------------------|


D|----------------------------------------------|---------|Repeat chorus
A|----------------------------------------------|---------|
F|--7/9-(9)-9-(9)-9-(9)-9-10-12-10-9-10-9-7-5-7-|-8-(8)---| <- play this
C|--x-x-(x)-x-(x)-x-(x)-x--x--x--x-x--x-x-x-x-x-|-x-(x)---| second time
G|--5/7-(7)-7-(7)-7-(7)-7--8-10--8-7--8-7-5-3-5-|-6-(6)---|
C|----------------------------------------------|---------|

Verse 2

D|------------------------------------------------------------------| x2
A|------------------------------------------------------------------|
F|---------------------------------------14-14-12-12-9-10\\---------|
C|--0-0-0-0---0-0-0---0-0-0---0-0-0-0-----x--x--x--x-x--x-----------|
G|--0-0-0-0---0-0-0---0-0-0---0-0-0-0----12-12-10-10-7--8\\---------|
C|--0-0-0-0---0-0-0---0-0-0---0-0-0-0-------------------------------|
    . . . .   . . .   . . .   . . . .

 
| D|------------------------------------------------------------------|
| A|------------------------------------------------------------------|
| F|------14-14-----12-10------14-14-----12-10-----14-14-----12-10----|
| C|--0-0--x--x-0-0--x--x--0-0--x--x-0-0--x--x-0-0--x--x-0-0--x--x----|
| G|--0-0-12-12-0-0-10--8--0-0-12-12-0-0-10--8-0-0-12-12-0-0-10--8----|
| C|--0-0-------0-0--------0-0-------0-0-------0-0-------0-0----------|
      . .       . .        . .       . .       . .       . .

D|-----------------------------| | x2
A|-----------------------------| |
F|--14-14-12-12-9-10\\---------| |
C|---x--x--x--x-x--x-----------| |
G|--12-12-10-10-7--8\\---------| |
C|-----------------------------| |

Bridge/Breakdown

D|-------------------------------------| 
A|-------------------------------------|
F|-------------------------------------|
C|--0-1-0-0--0-1-3-1--0-0-1-3---0-0-0--|
G|--0-1-0-0--0-1-3-1--0-0-1-3---0-0-0--|
C|--0-1-0-0--0-1-3-1--0-0-1-3---0-0-0--|
                                . . .
D|--------------------------------| x2
A|--------------------------------|
F|--------------------------------|
C|-0-0-0-0--0-0-0--0-0-0--0-0-0-0-|
G|-0-0-0-0--0-0-0--0-0-0--0-0-0-0-|
C|-0-0-0-0--0-0-0--0-0-0--0-0-0-0-|
   . . . .  . . .  . . .  . . . .

D|--------------------------------| x2
A|-15TP-14TP-11TP-10/\/\----------|
F|--------------------------------|
C|--------------------------------|
G|--------------------------------|
C|--------------------------------|

Pre-chorus
Chorus

Outtro Solo

D|-----17-20-17----------5-8-5----|  x2
A|---18--------18------6-------6--|
F|-19------------19---7---------7-|
C|--------------------------------|
G|--------------------------------|
C|--------------------------------|

D|-22-20~-----| 
A|------------|
F|------------|
C|------------|
G|------------|
C|------------|

That's about it, please comment and rate.

Tap to rate this tab
 
# A B C D E F G H I J K L M N O P Q R S T U V W X Y Z