Song name
# A B C D E F G H I J K L M N O P Q R S T U V W X Y Z

Atreyu - So Wrong tab

So Wrong
Atreyu
Congregation Of The Damned
Drop C- CGCFAD


-Intro-
Gtr 1
D|-------------------------------------------------------------------------|
A|-------------------------------------------------------------------------|
F|-------------------------------------------------------------------------|
C|-5~~~~~~~~~~~~~~~~-8~~~~~~~~~~~~~~~~-0~~~~~~~~~~~~~~~~-3~~~~~~~~~~~~~~~~-|
G|-5~~~~~~~~~~~~~~~~-8~~~~~~~~~~~~~~~~-0~~~~~~~~~~~~~~~~-3~~~~~~~~~~~~~~~~-|
C|-5~~~~~~~~~~~~~~~~-8~~~~~~~~~~~~~~~~-0~~~~~~~~~~~~~~~~-3~~~~~~~~~~~~~~~~-|
Gtr 2
D|-------------------------------------------------------------------------|
A|-------/17-15~~~~--------/15-13~~~~--------------------------------------|
F|-12-14-------------14-15-------------14-15-/17-14~~~~--14-15-12-14~~~~~~-|
C|-------------------------------------------------------------------------|
G|-------------------------------------------------------------------------|
C|-------------------------------------------------------------------------|

Gtr 1
D|-----------------------------------------------------------------|
A|-----------------------------------------------------------------|
F|-----------------------------------------------------------------|
C|-5-5-5-5-5-5-5-5-5-5-5-5-5-5-5-5-8-8-8-8-8-8-8-8-8-8-8-8-8-8-8-8-|
G|-5-5-5-5-5-5-5-5-5-5-5-5-5-5-5-5-8-8-8-8-8-8-8-8-8-8-8-8-8-8-8-8-|
C|-5-5-5-5-5-5-5-5-5-5-5-5-5-5-5-5-8-8-8-8-8-8-8-8-8-8-8-8-8-8-8-8-|
Gtr 2
D|-----------------------------------------------------------------|
A|-----------------------------------------------------------------|
F|-10-12-10-/14~~-10-12-10-/14-12--10-12-10-/14~~-10-12-10-/14-12--|
C|-----------------------------------------------------------------|
G|-----------------------------------------------------------------|
C|-----------------------------------------------------------------|

Gtr 1
D|-----------------------------------------------------------------|
A|-----------------------------------------------------------------|
F|-----------------------------------------------------------------|
C|-0-0-0-0-0-0-0-0-0-0-0-0-0-0-0-0-3-3-3-3-3-3-3-3-3-3-3-3-3-3-3-3-|
G|-0-0-0-0-0-0-0-0-0-0-0-0-0-0-0-0-3-3-3-3-3-3-3-3-3-3-3-3-3-3-3-3-|
C|-0-0-0-0-0-0-0-0-0-0-0-0-0-0-0-0-3-3-3-3-3-3-3-3-3-3-3-3-3-3-3-3-|
Gtr 2
D|-----------------------------------------------------------------|
A|-----------------------------------------------------------------|
F|-10-12-10-/14~~-10-12-10-/14-12~--9-10-9-/12~~~-9-10-9-/12-10~~--|
C|-----------------------------------------------------------------|
G|-----------------------------------------------------------------|
C|-----------------------------------------------------------------|


-Verse-
D|----------------------------------|
A|-8~~~~~~~~~~~~~~~~~~~~~~~~~~~~~~~-|
F|-7~~~~~~~~~~~~~~~~~~~~~~~~~~~~~~~-|
C|-5~~~~~~~~~~~~~~~~~~~~~~~~~~~~~~~-|
G|----------------------------------|
C|----------------------------------|
"Use to be, I could make the pieces...

D|----------------------------------|
A|-8~~~~~~~~~~~~~~~~~~~~~~~~~~~~~~~-|
F|-7~~~~~~~~~~~~~~~~~~~~~~~~~~~~~~~-|
C|-5~~~~~~~~~~~~~~~~~~~~~~~~~~~~~~~-|
G|----------------------------------|
C|----------------------------------|
...Fit. Break the edges, force fit all of...

Gtr 1
D|-------------------------------------------------|
A|-8~~~~~~~~~~~~~~~~~~~~~~~~~~~~~~~~~-8~~-6~~~~~~~-|
F|-7~~~~~~~~~~~~~~~~~~~~~~~~~~~~~~~~~-7~~-5~~~~~~~-|
C|-5~~~~~~~~~~~~~~~~~~~~~~~~~~~~~~~~~-5~~-3~~~~~~~-|
G|-------------------------------------------------|
C|-------------------------------------------------|
Gtr 2
D|-------------------------------------------------|
A|-------------------------------------------------|
F|-------------------------------------10-12-9~~~~-|
C|-------------------------------------x--x--x-----|
G|-------------------------------------8--10-7~~~~-|
C|-------------------------------------------------|
...This. How could I ever be So Wrong?

Gtr 1
D|----------------------------------|
A|-8~~~~~~~~~~~~~~~~~~~~~~~~~~~~~~~-|
F|-7~~~~~~~~~~~~~~~~~~~~~~~~~~~~~~~-|
C|-5~~~~~~~~~~~~~~~~~~~~~~~~~~~~~~~-|
G|----------------------------------|
C|----------------------------------|
Gtr 2
D|----------------------------------|
A|----------------------------------|
F|-10~~~~~~~~~~~~~~~~~~~~~~~~~~~~~~-|
C|-x--------------------------------|
G|-8~~~~~~~~~~~~~~~~~~~~~~~~~~~~~~~-|
C|----------------------------------|
...At our pace, we are doomed once we...

Gtr 1
D|----------------------------------|
A|-8~~~~~~~~~~~~~~~~~~~~~~~~~~~~~~~-|
F|-7~~~~~~~~~~~~~~~~~~~~~~~~~~~~~~~-|
C|-5~~~~~~~~~~~~~~~~~~~~~~~~~~~~~~~-|
G|----------------------------------|
C|----------------------------------|
Gtr 2
D|----------------------------------|
A|----------------------------------|
F|-10\7~~~~~~~~~~~~~~~~~~~~~~~~~~~~-|
C|--x-x-----------------------------|
G|--8\5~~~~~~~~~~~~~~~~~~~~~~~~~~~~-|
C|----------------------------------|
...Begin. Kinda makes your wonder, what's the

Gtr 1
D|-------------------------------------------------|
A|-8~~~~~~~~~~~~~~~~~~~~~~~~~~~~~~~~~-8~~-6~~~~~~~-|
F|-7~~~~~~~~~~~~~~~~~~~~~~~~~~~~~~~~~-7~~-5~~~~~~~-|
C|-5~~~~~~~~~~~~~~~~~~~~~~~~~~~~~~~~~-5~~-3~~~~~~~-|
G|-------------------------------------------------|
C|-------------------------------------------------|
Gtr 2
D|-------------------------------------------------|
A|-------------------------------------------------|
F|-10~~~~~~~~~~~~~~~~~~~~~~~~~~~~~~~~~-10-12-9~~~~-|
C|-x-----------------------------------x--x--x-----|
G|-8~~~~~~~~~~~~~~~~~~~~~~~~~~~~~~~~~~-8--10-7~~~~-|
C|-------------------------------------------------|
...Sense. How could I ever be So Wrong?


-Pre Chorus-
Gtr 1,2
D|---------------------------------------------|
A|---------------------------------------------|
F|-9-9-9-9-10-10-10-10-12-12-12-12-14-14-14-14-|
C|-x-x-x-x-x--x--x--x--x--x--x--x--x--x--x--x--|
G|-7-7-7-7-8--8--8--8--10-10-10-10-12-12-12-12-|
C|---------------------------------------------|
"AND I KNOW THAT FATE KEEPS LOATHING!!!"


D|-------------------|
A|-------------------|
F|-10-12-10-/14-12~~-|
C|-------------------|
G|-------------------|
C|-------------------|


-Chorus-
Gtr 1
D|-----------------------------------------------------------------|
A|-----------------------------------------------------------------|
F|-----------------------------------------------------------------|
C|-5-5-5-5-5-5-5-5-5-5-5-5-5-5-5-5-8-8-8-8-8-8-8-8-8-8-8-8-8-8-8-8-|
G|-5-5-5-5-5-5-5-5-5-5-5-5-5-5-5-5-8-8-8-8-8-8-8-8-8-8-8-8-8-8-8-8-|
C|-5-5-5-5-5-5-5-5-5-5-5-5-5-5-5-5-8-8-8-8-8-8-8-8-8-8-8-8-8-8-8-8-|
Gtr 2
D|-----------------------------------------------------------------|
A|-----------------------------------------------------------------|
F|-10-12-10-/14~~-10-12-10-/14-12--10-12-10-/14~~-10-12-10-/14-12--|
C|-----------------------------------------------------------------|
G|-----------------------------------------------------------------|
C|-----------------------------------------------------------------|
"(I can't help!) But go back to it! (Your flame still burns!) At the back of it!

Gtr 1
D|-----------------------------------------------------------------|
A|-----------------------------------------------------------------|
F|-----------------------------------------------------------------|
C|-0-0-0-0-0-0-0-0-0-0-0-0-0-0-0-0-3-3-3-3-3-3-3-3-3-3-3-3-3-3-3-3-|
G|-0-0-0-0-0-0-0-0-0-0-0-0-0-0-0-0-3-3-3-3-3-3-3-3-3-3-3-3-3-3-3-3-|
C|-0-0-0-0-0-0-0-0-0-0-0-0-0-0-0-0-3-3-3-3-3-3-3-3-3-3-3-3-3-3-3-3-|
Gtr 2
D|-----------------------------------------------------------------|
A|-----------------------------------------------------------------|
F|-10-12-10-/14~~-10-12-10-/14-12~--9-10-9-/12~~~-9-10-9-/12-10~~--|
C|-----------------------------------------------------------------|
G|-----------------------------------------------------------------|
C|-----------------------------------------------------------------|
...(AND ALTHOUGH!!!) There is a lack of air (I WON'T FORGET YOU!!!)"


-Verse-
D|----------------------------------|
A|-8~~~~~~~~~~~~~~~~~~~~~~~~~~~~~~~-|
F|-7~~~~~~~~~~~~~~~~~~~~~~~~~~~~~~~-|
C|-5~~~~~~~~~~~~~~~~~~~~~~~~~~~~~~~-|
G|----------------------------------|
C|----------------------------------|
"Simply put what's done is dead and...

D|----------------------------------|
A|-8~~~~~~~~~~~~~~~~~~~~~~~~~~~~~~~-|
F|-7~~~~~~~~~~~~~~~~~~~~~~~~~~~~~~~-|
C|-5~~~~~~~~~~~~~~~~~~~~~~~~~~~~~~~-|
G|----------------------------------|
C|----------------------------------|
...Gone. Can't forget, not for very...

D|---------------------------------------------|
A|-8~~~~~~~~~~~~~~~~~~~~~~~~~~~~~~~~~-8~~-6~~~~|
F|-7~~~~~~~~~~~~~~~~~~~~~~~~~~~~~~~~~-7~~-5~~~~|
C|-5~~~~~~~~~~~~~~~~~~~~~~~~~~~~~~~~~-5~~-3~~~~|
G|---------------------------------------------|
C|---------------------------------------------|
...Long. There is no pride involved in love.

D|----------------------------------|
A|-8~~~~~~~~~~~~~~~~~~~~~~~~~~~~~~~-|
F|-7~~~~~~~~~~~~~~~~~~~~~~~~~~~~~~~-|
C|-5~~~~~~~~~~~~~~~~~~~~~~~~~~~~~~~-|
G|----------------------------------|
C|----------------------------------|
...You can't manufacture happi-

D|----------------------------------|
A|-8~~~~~~~~~~~~~~~~~~~~~~~~~~~~~~~-|
F|-7~~~~~~~~~~~~~~~~~~~~~~~~~~~~~~~-|
C|-5~~~~~~~~~~~~~~~~~~~~~~~~~~~~~~~-|
G|----------------------------------|
C|----------------------------------|
...Ness. Try forever, you'll be re-

D|---------------------------------------------|
A|-8~~~~~~~~~~~~~~~~~~~~~~~~~~~~~~~~~-8~~-6~~~~|
F|-7~~~~~~~~~~~~~~~~~~~~~~~~~~~~~~~~~-7~~-5~~~~|
C|-5~~~~~~~~~~~~~~~~~~~~~~~~~~~~~~~~~-5~~-3~~~~|
G|---------------------------------------------|
C|---------------------------------------------|
...Missed. There is no pride involved in love.
No pride involved.


-Pre Chorus-
Gtr 1,2
D|---------------------------------------------|
A|---------------------------------------------|
F|-9-9-9-9-10-10-10-10-12-12-12-12-14-14-14-14-|
C|-x-x-x-x-x--x--x--x--x--x--x--x--x--x--x--x--|
G|-7-7-7-7-8--8--8--8--10-10-10-10-12-12-12-12-|
C|---------------------------------------------|
"AND ALL THAT I KNOW IS THAT I KNOW NOTHING!!!"

D|-------------------|
A|-------------------|
F|-10-12-10-/14-12~~-|
C|-------------------|
G|-------------------|
C|-------------------|


-Chorus-
Gtr 1
D||------------------------------------------------------------------|
A||o-----------------------------------------------------------------|
F||------------------------------------------------------------------|
C||--5-5-5-5-5-5-5-5-5-5-5-5-5-5-5-5-8-8-8-8-8-8-8-8-8-8-8-8-8-8-8-8-|
G||o-5-5-5-5-5-5-5-5-5-5-5-5-5-5-5-5-8-8-8-8-8-8-8-8-8-8-8-8-8-8-8-8-|
C||--5-5-5-5-5-5-5-5-5-5-5-5-5-5-5-5-8-8-8-8-8-8-8-8-8-8-8-8-8-8-8-8-|
Gtr 2
D||------------------------------------------------------------------|
A||o-----------------------------------------------------------------|
F||--10-12-10-/14~~-10-12-10-/14-12--10-12-10-/14~~-10-12-10-/14-12--|
C||------------------------------------------------------------------|
G||o-----------------------------------------------------------------|
C||------------------------------------------------------------------|
-"(I can't help!) But go back to it! (Your flame still burns!) At the back of it!
-You made me feel alive, but nothing lasts forever.

Gtr 1
D|------------------------------------------------------------------||
A|-----------------------------------------------------------------o||
F|------------------------------------------------------------------||
C|-0-0-0-0-0-0-0-0-0-0-0-0-0-0-0-0-3-3-3-3-3-3-3-3-3-3-3-3-3-3-3-3--||
G|-0-0-0-0-0-0-0-0-0-0-0-0-0-0-0-0-3-3-3-3-3-3-3-3-3-3-3-3-3-3-3-3-o||
C|-0-0-0-0-0-0-0-0-0-0-0-0-0-0-0-0-3-3-3-3-3-3-3-3-3-3-3-3-3-3-3-3--||
Gtr 2
D|------------------------------------------------------------------||
A|-----------------------------------------------------------------o||
F|-10-12-10-/14~~-10-12-10-/14-12~--9-10-9-/12~~~-9-10-9-/12-10~~---||
C|------------------------------------------------------------------||
G|-----------------------------------------------------------------o||
C|------------------------------------------------------------------||
...(AND ALTHOUGH!!!) There is a lack of air (I WON'T FORGET YOU!!!)
...Yeah, something deep inside. It takes me home again."


-Breakdown/Solo-
Gtr 2
D|----------------------------------------------------|
A|----------------------------------------------------|
F|----------------------------------------------------|
C|----------------------------------------------------|
G|----------------------------------------------------|
C|-555--5--555--555--5--555--888--8--888--888--8--888-|
   pm-  -  ---  ---  -  ---  ---  -  ---  ---  -  ---
D|----------------------------------------------------|
A|----------------------------------------------------|
F|----------------------------------------------------|
C|----------------------------------------------------|
G|----------------------------------------------------|
C|-000--0--000--000--0--000--333--3--333--333--3--333-|
   ---  -  ---  ---  -  ---  ---  -  ---  ---  -  ---

D|----------------------------------------------------|
A|----------------------------------------------------|
F|----------------------------------------------------|
C|----------------------------------------------------|
G|----------------------------------------------------|
C|-5-5--5--5-5--5-5--5--5-5--8-8--8--8-8--8-8--8--8-8-|

D|----------------------------------------------------|
A|----------------------------------------------------|
F|----------------------------------------------------|
C|----------------------------------------------------|
G|----------------------------------------------------|
C|-0-0--0--0-0--0-0--0--0-0--3-3--3--3-3--3-3--3--3-3-|

D|---------------------------------------------|
A|---------------------------------------------|
F|-9-9-9-9-10-10-10-10-12-12-12-12-14-14-14-14-|
C|-x-x-x-x-x--x--x--x--x--x--x--x--x--x--x--x--|
G|-7-7-7-7-8--8--8--8--10-10-10-10-12-12-12-12-|
C|---------------------------------------------|

D|-----------------------------------|
A|-----------------------------------|
F|-10-12-10-/14~~~-10-12-10-/14-12~~-|
C|-----------------------------------|
G|-----------------------------------|
C|-----------------------------------|


Sorry. don't know the solo.


-Chorus-
Gtr 1
D||------------------------------------------------------------------|
A||o-----------------------------------------------------------------|
F||------------------------------------------------------------------|
C||--5-5-5-5-5-5-5-5-5-5-5-5-5-5-5-5-8-8-8-8-8-8-8-8-8-8-8-8-8-8-8-8-|
G||o-5-5-5-5-5-5-5-5-5-5-5-5-5-5-5-5-8-8-8-8-8-8-8-8-8-8-8-8-8-8-8-8-|
C||--5-5-5-5-5-5-5-5-5-5-5-5-5-5-5-5-8-8-8-8-8-8-8-8-8-8-8-8-8-8-8-8-|
Gtr 2
D||------------------------------------------------------------------|
A||o-----------------------------------------------------------------|
F||--10-12-10-/14~~-10-12-10-/14-12--10-12-10-/14~~-10-12-10-/14-12--|
C||------------------------------------------------------------------|
G||o-----------------------------------------------------------------|
C||------------------------------------------------------------------|
-"(I can't help!) But go back to it! (Your flame still burns!) At the back of it!
-You made me feel alive, but nothing lasts forever.

Gtr 1
D|------------------------------------------------------------------||
A|-----------------------------------------------------------------o||
F|------------------------------------------------------------------||
C|-0-0-0-0-0-0-0-0-0-0-0-0-0-0-0-0-3-3-3-3-3-3-3-3-3-3-3-3-3-3-3-3--||
G|-0-0-0-0-0-0-0-0-0-0-0-0-0-0-0-0-3-3-3-3-3-3-3-3-3-3-3-3-3-3-3-3-o||
C|-0-0-0-0-0-0-0-0-0-0-0-0-0-0-0-0-3-3-3-3-3-3-3-3-3-3-3-3-3-3-3-3--||
Gtr 2
D|------------------------------------------------------------------||
A|-----------------------------------------------------------------o||
F|-10-12-10-/14~~-10-12-10-/14-12~--9-10-9-/12~~~-9-10-9-/12-10~~---||
C|------------------------------------------------------------------||
G|-----------------------------------------------------------------o||
C|------------------------------------------------------------------||
...(AND ALTHOUGH!!!) There is a lack of air (I WON'T FORGET YOU!!!)
...Yeah, something deep inside. It takes me home again."

D|---------------------------------------------|
A|---------------------------------------------|
F|-9-9-9-9-10-10-10-10-12-12-12-12-14-14-14-14-|
C|-x-x-x-x-x--x--x--x--x--x--x--x--x--x--x--x--|
G|-7-7-7-7-8--8--8--8--10-10-10-10-12-12-12-12-|
C|---------------------------------------------|
"AND ALL THAT I KNOW IS THAT I KNOW NOTHING!

Gtr 1
D|----------------------------------------------------------------------------|
A|----------------------------------------------------------------------------|
F|-9-9-9-9-10-10-10-10-12-12-12-12-14-14-14-----------------------------------|
C|-x-x-x-x-x--x--x--x--x--x--x--x--x--x--x--0~~~~~~~~~~~~~~~~~~~~~~~~~~~~~~~~-|
G|-7-7-7-7-8--8--8--8--10-10-10-10-12-12-12-0~~~~~~~~~~~~~~~~~~~~~~~~~~~~~~~~-|
C|------------------------------------------0~~~~~~~~~~~~~~~~~~~~~~~~~~~~~~~~-|
Gtr 2
D|----------------------------------------------------------------------------|
A|----------------------------------------------------------------------------|
F|-9-9-9-9-10-10-10-10-12-12-12-12-14-14-14-14~~~~~~~~~~~~~~~~~~~~~~~~~~~~~~~-|
C|-x-x-x-x-x--x--x--x--x--x--x--x--x--x--x--x---------------------------------|
G|-7-7-7-7-8--8--8--8--10-10-10-10-12-12-12-12~~~~~~~~~~~~~~~~~~~~~~~~~~~~~~~-|
C|----------------------------------------------------------------------------|
...ALL THAT I KNOW IS I KNOW NOTHIIIIIIIIIIIIIIIIIIIIIIIIIIIIIIIIING!!!"
Tap to rate this tab
# A B C D E F G H I J K L M N O P Q R S T U V W X Y Z