Song name
# A B C D E F G H I J K L M N O P Q R S T U V W X Y Z

Atreyu - Lip Gloss And Black tab

Scrape slide
D---------------------------------------------------------------------------|
A--10--13--11--10--10--h11--p10---------------------------------------------|
F--------------------------------10-----------------------------------------|
C------------------------------------10--10--10--10--10--10--h11--11--11----|
G----------------------------------------10--10--10--10--10--h11--11--11----|
C----------------------------------------10--10--10--10--10--h11--11--11----|

D----------------------------------------------------------------------------|
A-----------------13-------------11-------------10---------------------------|
F--12--10--9--10------10--9--10------10--9--10------10--9--10--12--10--9--10-|
C----------------------------------------------------------------------------|
G----------------------------------------------------------------------------|
C----------------------------------------------------------------------------|

D--------------------------------------------------------20-------------18--|
A--13---------11---------10-------------/20--18--17--18------18--17-18------|
F------10--9------10--9------10--9--10--------------------------------------|
C---------------------------------------------------------------------------|
G---------------------------------------------------------------------------|
C---------------------------------------------------------------------------|

D--------------17-----------------------------20----------18----------17-----|
A--18--17--18------18--17--18--18b20--17--18------18--17------18--17------18-|
F----------------------------------------------------------------------------|
C----------------------------------------------------------------------------|
G----------------------------------------------------------------------------|
C----------------------------------------------------------------------------|

D----------------------------------------------------------------18---------|
A--17--18--17--18--20--18--17--h18--p17--------------18--17--18------18--17-|
F----------------------------------------19--17-----------------------------|
C------------------------------------------------17-------------------------|
G---------------------------------------------------------------------------|
C---------------------------------------------------------------------------|

D------17-----------------------------20----------18----------17-------------|
A--18------18--17--18--18b20--17--18------18--17------18--17------18--17--17-|
F----------------------------------------------------------------------------|
C----------------------------------------------------------------------------|
G----------------------------------------------------------------------------|
C----------------------------------------------------------------------------|

D---------------------------------------------------------------------------|
A--h18--17v-----------------------------------------------------------------|
F---------------------------------------------------------------------------|
C---------------------------------------------------------------------------|
G---------------------------------------------------------------------------|
C---------------------------------------------------------------------------|

I spent AGES trying to work out the improvisation part on this solo. i slowed it down by 
than half the speed, and finaly worked it out.
Hope you Enjoy♫
Tap to rate this tab
# A B C D E F G H I J K L M N O P Q R S T U V W X Y Z