Song name
# A B C D E F G H I J K L M N O P Q R S T U V W X Y Z

Atreyu - You Give Love A Bad Name tab

----------------------------------------------------------------------
			   You give love a bad name - atreyu
----------------------------------------------------------------------
Tabbed by: anthony childs
Email: blondant@hotmail.co.uk

Tuning: d tunning (d,g,c,f,a,d)

d|-------------------------------------------|
a|-------------------------------------------|
f|-12-10-8-10b-5/12-10-8-10b-5---------------|
c|-------------------------------------------|
g|-------------------------------------------|
d|-------------------------------------------|

|-----------------|--------------------------|
|-----------------|--------------------------|
|-----------------|--------------------------|
|-----------------|--------------------------|
|-3-------6-6-3-3-|-5------------------------|
|---3-6-8-------1-|-3------------------------|

|-8-8-8-8-8-8-8-8-8-8-----------------------|
|-8-8-8-8-8-8-8-8-8-8-----------------------|
|-------------------------------------------|
|-------------------------------------------|
|-------------------------------------------|
|-------------------------------------------|
repeat until solo
solo
|-------------------------------------------|
|-------------------------------------------|
|-12b-12-12-12-10---------------------------|
|-----------------9-13----5-7---------------|
|----------------------5-6------------------|
|-------------------------------------------|

|-5/7/////tapped---12-12--9--10-------------|
|-------------------------12--13------------|
|-------------------------------------------|
|-------------------------------------------|
|-------------------------------------------|
|-------------------------------------------|

most of the solo sounds correct theres a bit ive missed out 
in the song
|-------------------------------------------|
|-------------------------------------------|
|-------------------------------------------|
|-------------------------------------------|
|-3-3-3-3-----------------------------------|
|-3-3-3-3-----------------------------------|
this bit should fit with song 
if theres anything wrong email me :)
thanks


************************************

| /   slide up
| \   slide down
| h   hammer-on
| p   pull-off
| ~   vibrato
| +   harmonic
| x   Mute note
| b   Bend
| pb  Pre-bend
| br  Bend release
| pbr Pre-bend release
| brb Bend release bend

************************************
Tap to rate this tab
# A B C D E F G H I J K L M N O P Q R S T U V W X Y Z