Song name
# A B C D E F G H I J K L M N O P Q R S T U V W X Y Z

Atreyu - So Wrong tab

/----------------------------So Wrong

/-----------------------------Atreyu

/-------------------Congregation of the damned


I noticed that first version of this song was missing the solo, so here it is. Version 1 
really good, here's the LEAD GUITAR of the solo (I think that guitar 2 does the same 
at the beginning)


2:05                                   2:8                                     2:10
|-------------8/11~|-------------8/13~|------------------------------------------------|
|-8h9-8h9-8h9------|-8h9-8h9-8h9------|-------------------10/14-11~--8-11-8-11-8-11-8--|
|------------------|------------------|-10h12-10h12-10h12------------------------------|
|------------------|------------------|------------------------------------------------|
|------------------|------------------|------------------------------------------------|
|------------------|------------------|------------------------------------------------|

2:17                                                                                          2:21
|-------13-15---------15-----------15--15--|-13---------13----13/18~|
|-13-16-------16-13------16-13---16--16--16|----15---------15-------|
|------------------------------------------|-------15---------------|
|------------------------------------------|------------------------|
|------------------------------------------|------------------------|
|------------------------------------------|------------------------|

2:24
|-18---------18---------16h18-16h18p16|
|----18---------18-16-----------------|
|-------19----------------------------|
|-------------------------------------|
|-------------------------------------|
|-------------------------------------|

2:27
|----------------------------------------12b|
|-------------------------------------------|
|-12h13p12----------------------------------|
|----------13-12----------------10-12-13----|
|----------------13-11-10-11-13-------------|
|-------------------------------------------|

2:31
|----------------------------------------|
|-15-12-15-16-13-16-18-15-18-20b20b20b20b|
|----------------------------------------|
|----------------------------------------|
|----------------------------------------|
|----------------------------------------|

2:34
|-----------------------------------|
|-13-15-13-15/16---13-15-13-15/16-15|
|-----------------------------------|
|-----------------------------------|
|-----------------------------------|
|-----------------------------------|

[chorus my way] x2
|-----------------------------------|
|-13-15-13-15/16---13-15-13-15/16-15|
|-----------------------------------|
|-----------------------------------|
|-----------------------------------|
|-----------------------------------|x3

|-----------------------------------|
|-12-13-12-13/14---12-13-12-13/14-13|
|-----------------------------------|
|-----------------------------------|
|-----------------------------------|
|-----------------------------------|

=)
Tap to rate this tab
 
# A B C D E F G H I J K L M N O P Q R S T U V W X Y Z