Song name
# A B C D E F G H I J K L M N O P Q R S T U V W X Y Z

Atreyu - Lose It tab

Atreyu - Lose It
Lead Guitar, Rythm Guitar Soon!..

Tabbed By: Tim Wilhelm

Drop C Tuning (CGCFAD)


Weird Instrument Intro Then:

Intro Part 1
D|-------------------------------------------------------------------------|
A|-------------------------------------------------------------------------|
F|-7-9---11-12-7-9-7-7-9---11-12-7-9-7-7-9---11-12-7-9-7-7-9---11-12-7-9-7-|
C|-----9-----------------9-----------------9-----------------9-------------|
G|-------------------------------------------------------------------------|
C|-------------------------------------------------------------------------|
Intro Part 2
D|-------------------------------------------------------------------------|
A|-7-8---12-13-8-7---7-8---12-13-8-7---7-8---12-13-8-7---7-8---12-13-8-7---|
F|-----9-----------9-----9-----------9-----9-----------9-----9-----------9-|
C|-------------------------------------------------------------------------|
G|-------------------------------------------------------------------------|
C|-------------------------------------------------------------------------|

Pre-Chorus
D|----------|
A|----------|
F|----------|
C|-x-x-x-x--|
G|-x-x-x-x--|
C|-x-x-x-x--|

Chorus
D|-----------------------------------------|
A|-----------------------------------------|
F|--------16-16-16-16-16-16-16-16-16-16-16-|
C|-2-2-2---x--x--x--x--x--x--x--x--x--x--x-|
G|-2-2-2--14-14-14-14-14-14-14-14-14-14-14-|
C|-2-2-2-----------------------------------|

D|-----------------------------------------|
A|-----------------------------------------|
F|--------16-16-16-16-16-16-16-16-17-16-14-|
C|-2-2-2---x--x--x--x--x--x--x--x--x--x--x-|
G|-2-2-2--14-14-14-14-14-14-14-14-15-14-12-|
C|-2-2-2-----------------------------------|

D|-------------------------------------------------|
A|-------------------------------------------------|
F|-12-12-12-14-14-14-16-16-16-16-16-16-16-16-16-16-|
C|--x--x--x--x--x--x--x--x--x--x--x--x--x--x--x--x-|
G|-10-10-10-12-12-12-14-14-14-14-14-14-14-14-14-14-|
C|-------------------------------------------------|

D|----------------------------------------------|
A|----------------------------------------------|
F|-9-9-9-11-11-11-12-12-12-12-12-12-12-12-12-12-|
C|-x-x-x--x--x--x--x--x--x--x--x--x--x--x--x--x-|
G|-7-7-7--9--9--9-10-10-10-10-10-10-10-10-10-10-|
C|----------------------------------------------|

D|----------|
A|----------|
F|----------|
C|-x-x-x-x--|
G|-x-x-x-x--|
C|-x-x-x-x--|

D|-----------------------------------------|
A|-----------------------------------------|
F|--------16-16-16-16-16-16-16-16-16-16-16-|
C|-2-2-2---x--x--x--x--x--x--x--x--x--x--x-|
G|-2-2-2--14-14-14-14-14-14-14-14-14-14-14-|
C|-2-2-2-----------------------------------|

D|-----------------------------------------|
A|-----------------------------------------|
F|--------16-16-16-16-16-16-16-16-17-16-14-|
C|-2-2-2---x--x--x--x--x--x--x--x--x--x--x-|
G|-2-2-2--14-14-14-14-14-14-14-14-15-14-12-|
C|-2-2-2-----------------------------------|

D|-------------------------------------------------|
A|-------------------------------------------------|
F|-12-12-12-14-14-14-16-16-16-16-16-16-16-16-16-16-|
C|--x--x--x--x--x--x--x--x--x--x--x--x--x--x--x--x-|
G|-10-10-10-12-12-12-14-14-14-14-14-14-14-14-14-14-|
C|-------------------------------------------------|

D|----------------------------------------------|
A|----------------------------------------------|
F|-9-9-9-11-11-11-12-12-12-12-12-12-12-12-12-12-|
C|-x-x-x--x--x--x--x--x--x--x--x--x--x--x--x--x-|
G|-7-7-7--9--9--9-10-10-10-10-10-10-10-10-10-10-|
C|----------------------------------------------|

Half Way Through The Second Verse
D|-12-12-12-12------------------------------12-12-12-12-------------------------------|
A|-------------12-12-12-12-8-8-8-8-7-4-4-4-4------------12-12-12-12-8-8-8-8-7-4-4-4-4-|
F|------------------------------------------------------------------------------------|
C|------------------------------------------------------------------------------------|
G|------------------------------------------------------------------------------------|
C|------------------------------------------------------------------------------------|
 		(or 17 on the 2nd String for that 12 on the 1st string)

D|--7-7-7-7-8-8-8-8-10-10-10-10-10-10-10-10-7-7-7-7-8-8-8-8-10-10-10-10-10-10-10-10-|
A|----------------------------------------------------------------------------------|
F|----------------------------------------------------------------------------------|
C|----------------------------------------------------------------------------------|
G|----------------------------------------------------------------------------------|
C|----------------------------------------------------------------------------------|

Pre-Chorus
D|----------|
A|----------|
F|----------|
C|-x-x-x-x--|
G|-x-x-x-x--|
C|-x-x-x-x--|

Chorus
D|-----------------------------------------|
A|-----------------------------------------|
F|--------16-16-16-16-16-16-16-16-16-16-16-|
C|-2-2-2---x--x--x--x--x--x--x--x--x--x--x-|
G|-2-2-2--14-14-14-14-14-14-14-14-14-14-14-|
C|-2-2-2-----------------------------------|

D|-----------------------------------------|
A|-----------------------------------------|
F|--------16-16-16-16-16-16-16-16-17-16-14-|
C|-2-2-2---x--x--x--x--x--x--x--x--x--x--x-|
G|-2-2-2--14-14-14-14-14-14-14-14-15-14-12-|
C|-2-2-2-----------------------------------|

D|-------------------------------------------------|
A|-------------------------------------------------|
F|-12-12-12-14-14-14-16-16-16-16-16-16-16-16-16-16-|
C|--x--x--x--x--x--x--x--x--x--x--x--x--x--x--x--x-|
G|-10-10-10-12-12-12-14-14-14-14-14-14-14-14-14-14-|
C|-------------------------------------------------|

D|----------------------------------------------|
A|----------------------------------------------|
F|-9-9-9-11-11-11-12-12-12-12-12-12-12-12-12-12-|
C|-x-x-x--x--x--x--x--x--x--x--x--x--x--x--x--x-|
G|-7-7-7--9--9--9-10-10-10-10-10-10-10-10-10-10-|
C|----------------------------------------------|

D|-----------------------------------------|
A|-----------------------------------------|
F|--------16-16-16-16-16-16-16-16-16-16-16-|
C|-2-2-2---x--x--x--x--x--x--x--x--x--x--x-|
G|-2-2-2--14-14-14-14-14-14-14-14-14-14-14-|
C|-2-2-2-----------------------------------|

D|-----------------------------------------|
A|-----------------------------------------|
F|--------16-16-16-16-16-16-16-16-17-16-14-|
C|-2-2-2---x--x--x--x--x--x--x--x--x--x--x-|
G|-2-2-2--14-14-14-14-14-14-14-14-15-14-12-|
C|-2-2-2-----------------------------------|

D|-------------------------------------------------|
A|-------------------------------------------------|
F|-12-12-12-14-14-14-16-16-16-16-16-16-16-16-16-16-|
C|--x--x--x--x--x--x--x--x--x--x--x--x--x--x--x--x-|
G|-10-10-10-12-12-12-14-14-14-14-14-14-14-14-14-14-|
C|-------------------------------------------------|

D|----------------------------------------------|
A|----------------------------------------------|
F|-9-9-9-11-11-11-12-12-12-12-12-12-12-12-12-12-|
C|-x-x-x--x--x--x--x--x--x--x--x--x--x--x--x--x-|
G|-7-7-7--9--9--9-10-10-10-10-10-10-10-10-10-10-|
C|----------------------------------------------|

Breakdown: (faint guitar in backround, sounds like natural harmonics but dont know)

drums, then:

D|----------------------------------------------|
A|----------------------------------------------|
F|----------------------------------------------|
C|-2--2--2-2-2-2-2-2-2-2--2--2--2-2-2-2-2-2-2-2-|
G|-2--2--2-2-2-2-2-2-2-2--2--2--2-2-2-2-2-2-2-2-|
C|-2--2--2-2-2-2-2-2-2-2--2--2--2-2-2-2-2-2-2-2-|
	 . . . . . . . .        . . . . . . . .

D|-----------------------------------------------------------------|
A|-----------------------------------------------------------------|
F|-----------------------------------------------------------------|
C|-10--10--10-10-10-10-10-10-10-10--7--7--7-7-7-7-7-7-7-7----2-2-2-|
G|-10--10--10-10-10-10-10-10-10-10--7--7--7-7-7-7-7-7-7-7----2-2-2-|
C|-10--10--10-10-10-10-10-10-10-10--7--7--7-7-7-7-7-7-7-7----2-2-2-|
           .   .  .  .  .  .  .  .        . . . . . . . .

Chorus

D|-----------------------------------------|
A|-----------------------------------------|
F|--------16-16-16-16-16-16-16-16-17-16-14-|
C|-2-2-2---x--x--x--x--x--x--x--x--x--x--x-|
G|-2-2-2--14-14-14-14-14-14-14-14-15-14-12-|
C|-2-2-2-----------------------------------|

D|-------------------------------------------------|
A|-------------------------------------------------|
F|-12-12-12-14-14-14-16-16-16-16-16-16-16-16-16-16-|
C|--x--x--x--x--x--x--x--x--x--x--x--x--x--x--x--x-|
G|-10-10-10-12-12-12-14-14-14-14-14-14-14-14-14-14-|
C|-------------------------------------------------|

D|----------------------------------------------|
A|----------------------------------------------|
F|-9-9-9-11-11-11-12-12-12-12-12-12-12-12-12-12-|
C|-x-x-x--x--x--x--x--x--x--x--x--x--x--x--x--x-|
G|-7-7-7--9--9--9-10-10-10-10-10-10-10-10-10-10-|
C|----------------------------------------------|

D|-----------------------------------------|
A|-----------------------------------------|
F|--------16-16-16-16-16-16-16-16-16-16-16-|
C|-2-2-2---x--x--x--x--x--x--x--x--x--x--x-|
G|-2-2-2--14-14-14-14-14-14-14-14-14-14-14-|
C|-2-2-2-----------------------------------|

D|-----------------------------------------|
A|-----------------------------------------|
F|--------16-16-16-16-16-16-16-16-17-16-14-|
C|-2-2-2---x--x--x--x--x--x--x--x--x--x--x-|
G|-2-2-2--14-14-14-14-14-14-14-14-15-14-12-|
C|-2-2-2-----------------------------------|

D|-------------------------------------------------|
A|-------------------------------------------------|
F|-12-12-12-14-14-14-16-16-16-16-16-16-16-16-16-16-|
C|--x--x--x--x--x--x--x--x--x--x--x--x--x--x--x--x-|
G|-10-10-10-12-12-12-14-14-14-14-14-14-14-14-14-14-|
C|-------------------------------------------------|

D|----------------------------------------------|
A|----------------------------------------------|
F|-9-9-9-11-11-11-12-12-12-12-12-12-12-12-12-12-|
C|-x-x-x--x--x--x--x--x--x--x--x--x--x--x--x--x-|
G|-7-7-7--9--9--9-10-10-10-10-10-10-10-10-10-10-|
C|----------------------------------------------|

Pre-Outro

D|--------------------------------------------------------|
A|--------------------------------------------------------|
F|-9-9-9-9-11-11-11-11-12-12-12-12-12-16-16-16-16---------|
C|-x-x-x-x--x--x--x--x--x--x--x--x--x--x--x--x--x---------|
G|-7-7-7-7--9--9--9--9-10-10-10-10-14-14-14-14-14---------|
C|--------------------------------------------------------|

Outro

D|-------------------------------------------------------------------------|
A|-------------------------------------------------------------------------|
F|-7-9---11-12-7-9-7-7-9---11-12-7-9-7-7-9---11-12-7-9-7-7-9---11-12-7-9-7-|
C|-----9-----------------9-----------------9-----------------9-------------|
G|-------------------------------------------------------------------------|
C|-------------------------------------------------------------------------|

D|-------------------------------------------------------------------------|
A|-7-8---12-13-8-7---7-8---12-13-8-7---7-8---12-13-8-7---7-8---12-13-8-7---|
F|-----9-----------9-----9-----------9-----9-----------9-----9-----------9-|
C|-------------------------------------------------------------------------|
G|-------------------------------------------------------------------------|
C|-------------------------------------------------------------------------|

D|---------------------------------|
A|---------------------------------|
F|---------------------------------|
C|-222-2-2-------------------------|
G|-222-2-2-------------------------|
C|-222-2-2-------------------------|  (2's not 22's)
   ...
Tap to rate this tab
# A B C D E F G H I J K L M N O P Q R S T U V W X Y Z