Song name
# A B C D E F G H I J K L M N O P Q R S T U V W X Y Z

Atreyu - Becoming The Bull tab

Tabbed by: Joshua Garcia (halofreak731@aol.com)

Tabs for the song: Becoming the Bull by Atreyu
Please rate and let me know if you have any corrections. Thank you.


Tuning: Drop C (C G C F A D)


Solo (3:17 - 3:27)
D||-------------------------12-13-12-13-12-13b15--r--15b17~--|
A||-----------------8h11p10----------------------------------|
F||----------9h10p9------------------------------------------|
C||--/8h10p8-------------------------------------------------|
G||----------------------------------------------------------|
C||----------------------------------------------------------|


D||--17-17p15p13--15-15p13p12--13-13p12p10--12-12p10p8--|
A||-----------------------------------------------------|
F||-----------------------------------------------------|
C||-----------------------------------------------------|
G||-----------------------------------------------------|
C||-----------------------------------------------------|


D||----------------------------------|
A||---------------5h6-----------*3---|
F||-5h7-7-7-----------------5--------|
C||-----------7h8-------7h8----------|
G||----------------------------------|
C||----------------------------------|




Tablature Legend
----------------
 h   - hammer-on
 p   - pull-off
 b   - bend
 r   - release bend
 *   - pinch harmonic
 '   - natural harmonic
 x   - mute note
 .   - palm mute
 /   - slide down
 \   - slide up
Tap to rate this tab
 
# A B C D E F G H I J K L M N O P Q R S T U V W X Y Z