Atreyu - Lip Gloss And Black tab

Atreyu
Drop C
Lip Gloss

E-------------------------------------------------|
B-------------------------------------------------|
G-14p7h10-14p7h10---------------------------------|
D-----------------14p7h10-14p7h10-----------------|
A-------------------------------------------------|
E-------------------------------------------------|
  T       T       T       T             (Guitar 1)

E-------------------------------------------------|
B-------------------------------------------------|
G-------------------------------------------------|
D-12p5h8-12p5h8-----------------------------------|
A---------------12p5h8-12p5h8---------------------|
E-------------------------------------------------|
  T       T       T       T             (Guitar 2)

E-------------------------------------------------|
B-------------------------------------------------|
G-14p7h10-14p7h10---------------------------------|
D-----------------14p7h10-14p7h10-----------------|
A-------------------------------------------------|
E-------------------------------------------------|
  T       T       T       T             (Guitar 1)

E-------------------------------------------------|
B-------------------------------------------------|
G-------------------------------------------------|
D-0-8--0--10--8-7---------------------------------|
A-0-8--0--10--8-7---------------------------------|
E-0-8--0--10--8-7---------------------------------|
  (Figure out strumming)                (Guitar 2)

E----------------------------------------------------------|
B----------------------------------------------------------|
G-7--9-10--9--10-12-10--14-12-14-12-10--12-14--12-10-9-5---|
D-x--x--x--x---x--x--x---x--x--x--x--x---x--x---x--x-x-x---|
A-5--7--8--7---8-10--8--12-10-12-10--8--10-10--10--8-7-3---|
E----------------------------------------------------------|
                                                 (Guitar 1)

E------------------------------------------|
B------------------------------------------|
G---------10\7---------------10\7----------|
D-0-0-0-0--x\x-0-0---0-0-0-0--x\x-0-0------|
A-0-0-0-0--8\5-0-0---0-0-0-0--8\5-0-0------|
E-0-0-0-0------0-0---0-0-0-0------0-0------|
  _ _ _ _      _ _   _ _ _ _      _ _  (Guitar 1 con't..)

E-------------------------------------------|
B-------------------------------------------|
G-------------------------------------------|
D-8888888-1010101010--0---------------------|
A-8888888-1010101010--0---------------------|
E-8888888-1010101010--0---------------------|
                        (Guitar 2)

And then second time around

E----------------------------------------------------------------|
B----------------------------------------------------------------|
G-7--9-10--9--10-12-10--14-12-14-12-10--12-14--12-10-9-7-6--6/7--|
D-x--x--x--x---x--x--x---x--x--x--x--x---x--x---x--x-x-x-x--x/x--|
A-5--7--8--7---8-10--8--12-10-12-10--8--10-10--10--8-7-5-4--4/5--|
E----------------------------------------------------------------|
  ^--------here to here is the same as above---------------------|(Guitar 1)

E---------------------------------------------------------------|
B---------------------------------------------------------------|
G---------------------------------------------------------------|
D-8888888-1010101010--0---8888888-1010101010-7--8-10------------|
A-8888888-1010101010--0---8888888-1010101010-7--8-10------------|
E-8888888-1010101010--0---8888888-1010101010-7--8-10------------|
                 (Guitar 2)

E---------------------------------------------------------|
B---------------------------------------------------------|
G---------------------------------------------------------|
D-0-0-0-0-0---8-8-8-8-8--3-3-3-3-3--101010-111111---------|
A-0-0-0-0-0---8-8-8-8-8--3-3-3-3-3--101010-111111---------|
E-0-0-0-0-0---8-8-8-8-8--3-3-3-3-3--101010-111111---------|
      _   _       _   _      _   _

E-------------------------------------------------|
B-------------------------------------------------|
G-------------------------------------------------|
D-0-0-0-0-0---8-8-8-8-8--3-3-3-3-3--333-222-------|
A-0-0-0-0-0---8-8-8-8-8--3-3-3-3-3--333-222-------|
E-0-0-0-0-0---8-8-8-8-8--3-3-3-3-3--333-222-------|
      _   _       _   _      _   _

E-------------------------------------------------|
B-------------------------------------------------|
G-------------------------------------------------|
D-0-----------------------------------------------|
A-0-000-000-000-000-000-000-000-000-000-000-------|
E-0-000-000-000-000-000-000-000-000-000-000-------|
    ___ ___ ___ ___ ___ ___ ___ ___ ___ ___

E--------------------------------------------------|
B--------------------------------------------------|
G-2-------2----------------------------10-9-5------|
D---3-3-3---3-3-3-0---2-------2---------x-x-x------|
A-----------------------3-3-3---3-3-0---8-7-3------|
E--------------------------------------------------|
  (^----Dampen these notes-------------------------|        (Guitar 1)

E-----------------------------------|
B-----------------------------------|
G---------------14-12-9-------------|
D-0-8---0-8------x--x-x-------------|
A-0-8---0-8-----12-10-7-------------|
E-0-8---0-8-------------------------|
                         (Guitar 2)

Just some breakdowns you can figure out for yourself
just
strum
0 0 0 0
0 0 0 0
0 0 0 0
then slide
10\7
 x\x
 8\5
And Guitar 1 does: 10 9 5
                    x x x
                    8 7 3
But Guitar 2 plays: 14 12 9
                     x  x x
                    12 10 7

E-------------------------------------------------|
B-----10--------10------10------------------------|
G---10--10-12-10--10--10--12--10-12---------------|
D-12----------------12------12--------------------|
A-------------------------------------------------|
E-------------------------------------------------|
        (Guitar 2 coming in during piano)

E-------------------------------------------------|
B-----10--------10------10-13----10---------------|
G---10--10-12-10--10--10-----10-------------------|
D-12----------------12---------12-----------------|
A-------------------------------------------------|
E-------------------------------------------------|
       (Guitar 2 con't..)

E-------------------------------------------------|
B-13----13----13----13---15----15----15----15-----|
G---14----14----14----14---14----14----14----14---|
D-----15----15----15---------15----15----15-------|
A-------------------------------------------------|
E-------------------------------------------------|
       (Guitar 1 over Guitar 2)

E------------------------12----12----12----12-----|
B-13----13----13----13----------------------------|
G---14----14----14----14---14----14----14----14---|
D-----15----15----15---------15----15----15-------|
A-------------------------------------------------|
E-------------------------------------------------|
      (Guitar 1 con't..)

E-------------------------------------------------|
B-------------------------------------------------|
G-------------------------------------------------|
D-000000-888888-10101010101010101010101010--------|
A-000000-888888-10101010101010101010101010--------|
E-000000-888888-10101010101010101010101010--------|
  (Guitar 2 plays behind solo)

E--------------------------------------------------------|
B----13-11-----------------------------------------------|
G-/14-----14---14h15p14----------------------------------|
D-----------------------15----15\------------------------|
A-------------------------15--15\------------------------|
E-----------------------------15\--1010101010h11111111---|
      (Guitar 1 solo)              ______

E-------------------------------------------------|
B-----------13--------11--------10----------------|
G-12-10-9-10--10-9-10---10-9-10---10-9-10---------|
D-------------------------------------------------|
A-------------------------------------------------|
E-------------------------------------------------|

E-------------------------------------------------|
B------------13----11----10-----------------------|
G-/12-10-9-10--10-9--10-9--10-9-10-9-10-----------|
D-------------------------------------------------|
A-------------------------------------------------|
E-------------------------------------------------|

E-------------20----------18----------17----------|
B-20-18-17-18----18-17-18----18-17-18----18-17-18-|
G-------------------------------------------------|
D-------------------------------------------------|
A-------------------------------------------------|
E-------------------------------------------------|

E----------------20-------18-------17----------------|
B-18/20-18-17-18----18-17----18-17----18-17-18-17-18-|
G----------------------------------------------------|
D----------------------------------------------------|
A----------------------------------------------------|
E----------------------------------------------------|

E-------------------------------18----------17----------|
B-20-18-17h18p17-------18-17-18----18-17-18----18-17-18-|
G----------------19p17----------------------------------|
D-------------------------------------------------------|
A-------------------------------------------------------|
E-------------------------------------------------------|

E--------------20-------18-------17---------------------|
B-/22-18-17-18----18-17----18-17----18-17~--------18-17-|
G-------------------------------------------------------|
D-------------------------------------------------------|
A-------------------------------------------------------|
E-------------------------------------------------------|
Tap to rate this tab
 
# A B C D E F G H I J K L M N O P Q R S T U V W X Y Z