Song name
# A B C D E F G H I J K L M N O P Q R S T U V W X Y Z

Atreyu - A Song For The Optimists tab

Atreyu - Song
Drop C Tuning

E------------------------------------------------|
B------------------------------------------------|
G---------------7-9-5-10-7-10---7-9-10-----------|
D-0-8-0-10-8-7--x-x-x--x-x--x---x-x--x-----------|
A-0-8-0-10-8-7--5-7-3--8-9--8---5-7--8-----------|
E-0-8-0-10-8-7-----------------------------------|

E------------------------------------------------|
B------------------------------------------------|
G------------------------------------------------|
D----tremelo------------tremelo------------------|
A-5-7-8-10-8-7-5---5-7-8-7-5-7-3-----------------|
E------------------------------------------------|

E------------------------------------------------|
B------------------------------------------------|
G------------------------------------------------|
D----tremelo----------tremelo--------------------|
A-5-7-8-10-8-7-5---4-13-12-7---------------------|
E------------------------------------------------|

E------------------------------------------------|
B------------------------------------------------|
G------------------------------------------------|
D------------------------------------8--10-------|
A-8-10-12-8-10-12-7---8-10-8-7-------8--10-------|
E------------------------------------8--10-------|
                           (figure out strumming)

E------------------------------------------------|
B------------------------------------------------|
G---------------------------5--------------------|
D-0-------------------------5-3-3-3-2-0----------|
A-0-------------------------3-3-3-3-2-0----------|
E-0-0-0-0-0-0-0-000-000-000---3-3-3-2-0----------|
    _ _ _ _ _ _ ___ ___ ___

E---------------------------------------------------|
B---------------------------------------------------|
G-/9-7--9-10-7--9-10-9--10h12p10-9h10p9-7h9p7\5--7--|
D---------------------------------------------------|
A---------------------------------------------------|
E---------------------------------------------------|


E------------------------------------------------|
B------------------------------------------------|
G-/9-7--9-10-7--9-10-5--/14p12-10/12-10p9/5--7*--|
D------------------------------------------------|
A------------------------------------------------|
E------------------------------------------------|


E------------------------------------------------------|
B-----------------------10-10h13p10-8h10p8-6h8p6-------|
G-9/10-7--9-10-12-10-----------------------------------|
D------------------------------------------------------|
A------------------------------------------------------|
E------------------------------------------------------|


E------------------------------------------------|
B-/8-6--8-10-8--6-8-10--7p6p5-5-6-7-6------------|
G-------------------------------------7----------|
D------------------------------------------------|
A------------------------------------------------|
E------------------------------------------------|


E------------------------------------------------|
B------------------------------------------------|
G------------------------------------------------|
D-----3-5-7-10-----------------------------------|
A-5-3-1-3-5--8-8-10------------------------------|
E-0-3----------8-10------------------------------|
(Mute and strum a lot)

E------------------------------------------------|
B-13-----13-----15-----15------------------------|
G---14-----14-----14-----14----------------------|
D-----15-----15-----15-----15--------------------|
A------------------------------------------------|
E------------------------------------------------|

E------------------------------------------------|
B-13-----13-----15-----15------------------------|
G---14-----14-----14-----14----------------------|
D-----15-----15-----15-----15--------------------|
A------------------------------------------------|
E------------------------------------------------|

E------------------------------------------------|
B-13-----17-----15-----13------------------------|
G---14-----14-----14-----14----------------------|
D-----15-----15-----15-----15--------------------|
A------------------------------------------------|
E------------------------------------------------|

E------------------------------------------------|
B-13-----13-----15-----15------------------------|
G---14-----14-----14-----14----------------------|
D-----15-----15-----15-----15--------------------|
A------------------------------------------------|
E------------------------------------------------|

E------------------------------------------------|
B------------------------------------------------|
G------------------------------------------------|
D-----3-5-7-10-----------------------------------|
A-5-3-1-3-5--8-8-10------------------------------|
E-0-3----------8-10------------------------------|

E------------------------------------------------|
B------------------------------------------------|
G------------------------------------------------|
D-8-10-------------------------------------------|
A-8-10-------------------------------------------|
E-8-10-------------------------------------------|

E------------------------------------------------|
B------------------------------------------------|
G------------------------------------------------|
D----------------------------------tremelo-------|
A-8---------10---------12---------7-8-10-8-7-----|
E---000-000----000-000----000-000----------------|
    ___ ___    ___ ___    ___ ___

E------------------------------------------------|
B------------------------------------------------|
G------------------------------------------------|
D------------------------------------------------|
A-8---------10---------12---------10-8-7-8*------|
E---000-000----000-000----000-000----------------|

E------------------------------------------------|
B------------------------------------------------|
G------------------------------------------------|
D--------------------------------------0---------|
A-8-10-12-8-10-12-7---8-10-8-7---------0---------|
E--------------------------------------0---------|
Tap to rate this tab
 
# A B C D E F G H I J K L M N O P Q R S T U V W X Y Z