Song name
# A B C D E F G H I J K L M N O P Q R S T U V W X Y Z

Atreyu - Stop Before Its Too Late And Weve Destroyed It All tab

If you have any messages or advice; Email me  Slash_kucha_02@hotmail.com
;And that sweep part is the way I do it, I've no idea how it actually goes.
Also this is my first Tab so please Rate, and you know all that good stuff..
and I HOPE YOU ENJOY!!!!  ALSO!!! I'm not lying, I've just heard this song tonight.
and noticed no one plays it right.
or the tab's are incorrect...
so if you want something done right you gotta do it yourself I guess..

6/2/2011   Took me about 3 to 4 hours to get this intro down..  =D


Atreyu - Stop! Before it's Too late And We've Destroyed It All...
Drop C  {C G C F A D}
p = Pull Off(S)
h = Hammer On(S)
s = Slide


D|--15p11------15p11--15P11------15p11--15p11------15p11------15p11--15p11------15p11--15p11-----|
A|---------13----------------13----------------13---------13----------------13----------------13-|
F|-----------------------------------------------------------------------------------------------|
C|-----------------------------------------------------------------------------------------------|
G|-----------------------------------------------------------------------------------------------|
C|-----------------------------------------------------------------------------------------------|

                                                SWEEEEEEEEEEEEEEEEEEEEEEP

D|--13p10------13p10--13p10------13p10--13p10---13h18p13---------------13--|
A|---------11----------------11--------------------------15----------15----|
F|---------------------------------------------------------15------15------|
C|-----------------------------------------------------------15--15--------|
G|-------------------------------------------------------------13----------|
C|-------------------------------------------------------------------------|

    Following the SWEEEEEEEEEEEEEEEEEEEEP

D|--18p13------18p13--18p13------18p13--18p13------18p13------18p13--18p13------18p13--18p13----|
A|---------15----------------15----------------15---------15----------------15----------------15|
F|----------------------------------------------------------------------------------------------|
C|----------------------------------------------------------------------------------------------|
G|----------------------------------------------------------------------------------------------|
C|----------------------------------------------------------------------------------------------|

                                                 |  Second Run through A.K.A Finish
Intro into Verse  |
                                                 |
             |
D|-18s20-202020--18--17---18p17-----------------|--18s20-202020--18--17--18p17-------------------|
A|-------------------------------18b20~ ~ ------|-------------------------------18b20~-19s14b15~~|
F|----------------------------------------------|------------------------------------------------|
C|----------------------------------------------|------------------------------------------------|
G|----------------------------------------------|------------------------------------------------|
C|----------------------------------------------|------------------------------------------------|
Tap to rate this tab
 
# A B C D E F G H I J K L M N O P Q R S T U V W X Y Z