Song name
# A B C D E F G H I J K L M N O P Q R S T U V W X Y Z

Atreyu - Someone Standing On My Chest tab

-----------------------------------------------------------------------------
                  Someones Standing On My Chest - Atreyu
-----------------------------------------------------------------------------
Tabbed by:Metalcoreking
Email:Matthessell@live.com

Tuning:CGCFAD

D|---------0-|
A|-------6---|
F|-----0-----|
C|---7-------|
G|-5---------|
C|-----------|

D|-------------------(1st-Time)|----(2x-Time)|------------------------------|
A|-----------------------------|-------------|------------------------------|
F|-----------------------7-----|-------------|----9/10-5-555-5-555-3-333----|
C|-7-5-3-0---------------X-----|-0-0-0-0-0-0-|----X-X--5-555-5-555-3-333----|
G|-7-5-3-0---------------5-----|-0-0-0-0-0-0-|----7/8--3-333-3-333-1-111----|
C|-7-5-3-0-0-000-000-000---000-|-0-0-0-0-0-0-|------------------------------|

D|--------------------------------------------------------------------------|
A|--------------------------------------------------------------------------|
F|-----------------------7-----9-10-/121212\10-9-9-9/10\9-------------------|
C|-7-5-3-0---------------X-----X-X--/X-X-X--X--X-X-X-X--X-------------------|
G|-7-5-3-0---------------5-----7/8--/101010\8--7-7-7/X-\7-------------------|
C|-7-5-3-0-0-000-000-000---000----------------------------------------------|

D|--------------------------------------------------------------------------|
A|--------------------------------------------------------------------------|
F|-----------7\\-----------7\\-----------7\\--------------------------------|
C|-000-00000-X---000-00000-X---000-00000-X---8-8-8-1010103-3-3-3-2----------|
G|-000-00000-5\\-000-00000-8\\-000-00000-5\\-8-8-8-8-8-8-3-3-3-3-2----------|
C|-000-00000-----000-00000-----000-00000-----8-8-8-8-8-8-3-3-3-3-2----------|

*Pickslide\\\\\\\\\\\\\\\\

D|--------------------------------------------------------------------------|
A|--------------------------------------------------------------------------|
F|-------7----------7----------7--------------------------------------------|
C|-0-3-0-7-6--0-3-0-7-6--0-3-0-7-6--0-3-0--3-2-1----------------------------|
G|-0-3-0-5-6--0-3-0-5-6--0-3-0-5-6--0-3-0--3-2-1----------------------------|
C|-0-3-0---6--0-3-0---6--0-3-0---6--0-3-0--3-2-1----------------------------|

D|-0-0-0-0-0-0-0-0-0-0-0-0-0-0-0-0-0-0-0-0-0-0-0-0-0-0-0-0-0-0-0-0----------|
A|-5-5-5-5-5-5-5-5-6-6-6-6-6-6-6-6-8-8-8-8-8-8-8-8-1010101010101010---------|
F|--------------------------------------------------------------------------|
C|--------------------------------------------------------------------------|
G|--------------------------------------------------------------------------|
C|--------------------------------------------------------------------------|

D|--------------------------------------------------------------------------|
A|--------------------------------------------------------------------------|
F|--------------------------------------------------------------------------|
C|-0-0-0-0-0-0-0-0-3-3-3-3-3-3-3-3-8-8-8-8-8-8-8-8-3-3-3-3-2-2-2-2----------|
G|-0-0-0-0-0-0-0-0-3-3-3-3-3-3-3-3-8-8-8-8-8-8-8-8-3-3-3-3-2-2-2-2----------|
C|-0-0-0-0-0-0-0-0-3-3-3-3-3-3-3-3-8-8-8-8-8-8-8-8-3-3-3-3-2-2-2-2----------|

D|--------------------------------------------------------------------------|
A|--------------------------------------------------------------------------|
F|--------------------------------------------------------------------------|
C|-------------------/8-7-5--------------------/8-7-5-7-5-------------------|
G|-5--7/8\7--8/10\8---------8--5-7/8\7--8/10\8------------8-----------------|
C|--------------------------------------------------------------------------|

D|--------------------------------------------------------------------------|
A|--------------------------------------------------------------------------|
F|--------------------------------------------------------------------------|
C|--------------------------------------------------------------------------|
G|-8-7-8-5---8-7-8-5---12-15-13-12---10-12-8-10-----------------------------|
C|--------------------------------------------------------------------------|
  Tremelo These Notes
D|--------------------------------------------|-----------------------------|
A|--------------------------------------------|-----------------------------|
F|--------------------------------------------|-----------------------------|
C|--------------------------------------------|-----------------------0-----|
G|-8-7-8-5---8-7-8-5---10-10-12-12-13-13-12---|---/13-12-10-/12-10-8--0-----|
C|--------------------------------------------|-----------------------0-----|
  Tremelo These Notes
************************************

| /   slide up
| \   slide down
| h   hammer-on
| p   pull-off
| ~   vibrato
| +   harmonic
| x   Mute note
| b   Bend
| pb  Pre-bend
| br  Bend release
| pbr Pre-bend release
| brb Bend release bend

************************************
Tap to rate this tab
 
# A B C D E F G H I J K L M N O P Q R S T U V W X Y Z