Song name
# A B C D E F G H I J K L M N O P Q R S T U V W X Y Z

Atreyu - Insatiable tab

Song: Insatiable
Artist: Atreyu
Album: Congregation of the Damned
Tab by: jako218


Tuning: Drop C (C G C F A D)

Key
x   - mute
/   - slide up into
\   - slide down out of
\\\ - pickslide
b   - bend to stated note
r   - return bend back to starting note
()  - start at this note for return bend
[]  - keep note held and play same bent note
PM  - palm mute
.   - palm mute selected note
~   - let ring
//  - comment




Opening
If you can, turn off the neck pickup and play this note while flicking the pickup switch 
back and forth, gets the same kind of sound effect as the opening to this

song. Alternatively, strum this note each time you can hear it in the song but mute 
really quickly in between each one.

Guitar 1/2 (your choice)
D|-------|
A|-------|
F|---7---|
C|---x---|
G|---5---|
C|-------|

Intro

Guitar 1 (Riff 1)
D|-----------------------------------------|
A|----------------------------{6}{5}-------| (alternative way of playing it)
F|-----------------------------10-9--------|
C|-------7-----5-----8-----7--------7~-----|
G|---5-5---5-5---5-5---5-5---5-------------| x6
C|-----------------------------------------|
 PM  . .   . .   . .   . .   .


Guitar 2
D|--------|
A|--------|
F|--------|
C|---0~---|
G|---0~---| (Guitar 2 on 3rd time of Riff 1, hold until end of 4th Time)
C|---0~---|

D|-------------------------------------|
A|-------------------------------------|
F|-------------------------------------|
C|---0-0-0-0-0-0-0-0-0-0-0-0-0-0-0-0---|
G|---0-0-0-0-0-0-0-0-0-0-0-0-0-0-0-0---| (on 5th time of Riff 1)
C|---0-0-0-0-0-0-0-0-0-0-0-0-0-0-0-0---|
 PM  . . . . . . . . . . . . . . . .

D|----------------------------------|
A|----------------------------------|
F|----------------------------------|
C|---0-0-0-0-0-0-0-0-0-0-0-0-12//---|
G|---0-0-0-0-0-0-0-0-0-0-0-0-12//---|
C|---0-0-0-0-0-0-0-0-0-0-0-0-12//---|
 PM  . . . .



Guitar 1 (Riff 2)
(The following number are for timing; a 1, 2, 3, etc above a note on both Guitar 1 and 
Guitar 2 means the notes are played at the same time)

      1          2            3           4
D|-------------------------------------------------|
A|-------------------------------------------------|
F|---/5~-7-7~---/9~-10-10~---/10-10-9~---/9-9-5~---|
C|-------------------------------------------------|
G|-------------------------------------------------|
C|-------------------------------------------------|

      5          6            7           8
D|----------------------------------------------------------|
A|----------------------------------------------------------|
F|---/5~-7-7~---/9~-10-10~---/10-10-9~---/10-12-12~---14~---|
C|----------------------------------------------------------|
G|----------------------------------------------------------|
C|----------------------------------------------------------|


Guitar 2

      1                      2                      3                      4
D|-----------------------------------------------------------------------------------------------|
A|-----------------------------------------------------------------------------------------------|
F|-------------------------------------------------10~--10-10-10-10-10-10-10~--10----------------|
C|---10~--12-12-12-12-12-12-10~--12-12-12-12-12-12-10~--10-10-10-10-10-10-10~--10-10-10-10-10~---|
G|---10---12-12-12-12-12-12-10~--12-12-12-12-12-12-8~---8--8--8--8--8--8--8~---8--10-10-10-10~---|
C|---10---12-12-12-12-12-12-10~--12-12-12-12-12-12--------------------------------10-10-10-10~---|
 PM           .  .     .  .          .  .     .  .         .  .     .  .              .  .

      5                      6                      7                      8
D|-----------------------------------------------------------------------------------------------|
A|-----------------------------------------------------------------------------------------------|
F|-------------------------------------------------10~--10-10-10-10-10-10-10~--12-12-12-12~------|
C|---10~--12-12-12-12-12-12-10~--12-12-12-12-12-12-10~--10-10-10-10-10-10-10~--12-12-12-12~------|
G|---10---12-12-12-12-12-12-10~--12-12-12-12-12-12-8~---8--8--8--8--8--8--8~---10-10-10-10~------|
C|---10---12-12-12-12-12-12-10~--12-12-12-12-12-12-----------------------------------------------|
 PM           .  .     .  .          .  .     .  .         .  .     .  .              .



Verse 1

Guitar 1 & 2

        Can't check...       Break my fist...          Because raw...     ...KNOW!
D|-----------------------|-----------------------|-----------------------|------------------------|
A|-----------------------|-----------------------|-----------------------|------------------------|
F|-----------------------|-----------------------|-----------------------|------------------------|
C|---0~------------------|---3~------------------|---0~------------------|---10~------------------|
G|---0~------------------|---3~------------------|---0~------------------|---10~------------------|
C|---0~------------------|---3~------------------|---0~------------------|---10~------------------|

        Convince myself...   Actions aren't...         Then passionately...         
D|-----------------------|-----------------------|-----------------------|
A|-----------------------|-----------------------|-----------------------|
F|-----------------------|-----------------------|-----------------------|
C|---0~------------------|---3~------------------|---0~------------------|
G|---0~------------------|---3~------------------|---0~------------------|
C|---0~------------------|---3~------------------|---0~------------------|

  ...GO!                      And it suit...
D|------------------------|-----------------|
A|------------------------|-----------------|
F|------------------------|-----------------|
C|---10~------------------|-----------------|
G|---10~------------------|-----------------|
C|---10~------------------|---3-2-0-2-3-2---|



Pre-Chorus 1

Guitar 1

           When I have...  ...want...                    Cause I...   ...everything
D|------------------------|------------------------|-------------------------------|
A|------------------------|------------------------|-------------------------------|
F|---10~------------------|---7~-------------------|---10~--------------/12~-------|
C|---10~------------------|---7~-------------------|---10~--------------/12~-------|
G|---8~-------------------|---5~-------------------|---8~---------------/10~-------|
C|------------------------|------------------------|-------------------------------|


Guitar 2
D|------------------------|------------------------|-------------------------------|
A|------------------------|------------------------|-------------------------------|
F|------------------------|------------------------|-------------------------------|
C|---3~-------------------|---5~-------------------|---3~---------------/5~--------|
G|---3~-------------------|---5~-------------------|---3~---------------/5~--------|
C|---3~-------------------|---5~-------------------|---3~---------------/5~--------|




Chorus 1

Guitar 1 & 2
D|--------------------------------------------------------------------------------------|
A|--------------------------------------------------------------------------------------|
F|-------------------------------------------------10~--10-10-10-10-10-10-10~--12-12~---|
C|---10~--12-12-12-12-12-12-10~--12-12-12-12-12-12-10~--10-10-10-10-10-10-10~--12-12~---|
G|---10---12-12-12-12-12-12-10~--12-12-12-12-12-12-8~---8--8--8--8--8--8--8~---10-10~---| x2
C|---10---12-12-12-12-12-12-10~--12-12-12-12-12-12--------------------------------------|
 PM           .  .     .  .          .  .     .  .         .  .     .  .



Verse 2

Guitar 1

        Suddenly anger...    Colours red...              Sometimes we...     ...that we LOVE!
D|-----------------------|-----------------------|-----------------------|-------------------|
A|-----------------------|-----------------------|-----------------------|-------------------|
F|---7~------------------|-----------------------|-----------------------|-------------------|
C|---7~------------------|-----------------------|-----------------------|--------------0~---|
G|---5~------------------|-----------------------|-----------------------|--------------0~---|
C|-----------------------|-----------------------|-----------------------|--------2-3-2-0~---|


D|-----------------|---|
A|-----------------|---|
F|-----------------|---|
C|---0-0-0-0-0-0-0-|-0-|
G|---0-0-0-0-0-0-0-|-0-| x40 (play second bar here 40 times)
C|---0-0-0-0-0-0-0-|-0-|
 PM    . . . . . .   .

       The price I pay...undreamed OF! (The open C is played in time with the word 'of')
D|--------------------------------------|---------------------------------|
A|--------------------------------------|---------------------------------|
F|--------------------------------------|---------------------------------|
C|---3-3-3-3-3-3-3-3-3-3-3-3-------0~---|---0-0-0-0-0-0-0-0-3-2-0-2-3-5---|
G|---3-3-3-3-3-3-3-3-3-3-3-3-------0~---|---0-0-0-0-0-0-0-0-3-2-0-2-3-5---|
C|---3-3-3-3-3-3-3-3-3-3-3-3-2-3-5-0~---|---0-0-0-0-0-0-0-0-3-2-0-2-3-5---|
 PM  . . . . . . . . . . . .                  . . . . . . .


Guitar 2 (same timing as Guitar 1 with words)
D|-----------------------|-----------------------|-----------------------|-------------------|
A|-----------------------|-----------------------|-----------------------|-------------------|
F|-----------------------|-----------------------|-----------------------|-------------------|
C|---0~------------------|---3~------------------|---0~------------------|--------------0~---|
G|---0~------------------|---3~------------------|---0~------------------|--------------0~---|
C|---0~------------------|---3~------------------|---0~------------------|--------------0~---|


D|-----------------|---|
A|-----------------|---|
F|-----------------|---|
C|---0-0-0-0-0-0-0-|-0-|
G|---0-0-0-0-0-0-0-|-0-| x40 (play second bar here 40 times)
C|---0-0-0-0-0-0-0-|-0-|
 PM    . . . . . .   .

D|--------------------------------------|---------------------------------|
A|--------------------------------------|---------------------------------|
F|--------------------------------------|---------------------------------|
C|---3-3-3-3-3-3-3-3-3-3-3-3-------0~---|---0-0-0-0-0-0-0-0-3-2-0-2-3-5---|
G|---3-3-3-3-3-3-3-3-3-3-3-3-------0~---|---0-0-0-0-0-0-0-0-3-2-0-2-3-5---|
C|---3-3-3-3-3-3-3-3-3-3-3-3-2-3-5-0~---|---0-0-0-0-0-0-0-0-3-2-0-2-3-5---|
 PM  . . . . . . . . . . . .                  . . . . . . .


Pre-Chorus 2
(Same as Pre-Chorus 1 for both Guitars, except x4 not x2)


Chorus 2
(Same as Chorus 1 for both Guitars)



Pre-Solo (Riff 3)

Guitar 1
D|-------------------------------------------------|
A|-------------------------------------------------|
F|---/10~--9\7-7~--7-7/9-10-9~--7-7-7-7/9-5~-------|
C|-------------------------------------------------|
G|-------------------------------------------------|
C|-------------------------------------------------|

D|-------------------------------------------------|
A|-------------------------------------------------|
F|---/10~--9\7-7~--7-7/9-10-9-10-12-9-7-7-7/9-6~---|
C|-------------------------------------------------|
G|-------------------------------------------------|
C|-------------------------------------------------|

D|-------------------------------------------------|
A|-------------------------------------------------|
F|---/10~--9\7-7~--7-7/9-10-9~--7-7-7-7/9-5~-------|
C|-------------------------------------------------|
G|-------------------------------------------------|
C|-------------------------------------------------|

D|-------------------------------------------------|
A|-------------------------------------------------|
F|---/10~--9\7-7~--/12~-10~-9-9~-6-6~-/10~---------|
C|-------------------------------------------------|
G|-------------------------------------------------|
C|-------------------------------------------------|


Guitar 2
D|-------------------------------------------------|
A|-------------------------------------------------|
F|-------------------------------------------------|
C|---12~--------------------10~--------------------|
G|---12~--------------------10~--------------------|
C|---12~--------------------10~--------------------|

D|-------------------------------------------------|
A|-------------------------------------------------|
F|-------------------------------------------------|
C|---8~---------------------10~--------11~---------|
G|---8~---------------------10~--------11~---------|
C|---8~---------------------10~--------11~---------|

D|-------------------------------------------------|
A|---/10~--8\6-6~--6-6/8-10-8~--6-6-6-6/8-5~-------|
F|-------------------------------------------------|
C|-------------------------------------------------|
G|-------------------------------------------------|
C|-------------------------------------------------|

D|-------------------------------------------------|
A|---/10~--8\6-6~--/11~-10~-8-8~-5-5~-/10~---------|
F|-------------------------------------------------|
C|-------------------------------------------------|
G|-------------------------------------------------|
C|-------------------------------------------------|



Solo

Guitar 1
D|-----------------------------------------20---------------|
A|-----------------------13~---20b22r20b22----(22)r20-18~---|
F|---12~b14~r12b14r12b14------------------------------------|
C|----------------------------------------------------------|
G|----------------------------------------------------------|
C|----------------------------------------------------------|


D|----------------------------------------------------------|
A|------------11-13-----------------------------------------|
F|---10-12-14-------141210-14-12-12b14r12-12-10-12----------|
C|-------------------------------------------------12-15----|
G|----------------------------------------------------------|
C|----------------------------------------------------------|


D|---20b22~-20-20-20b22-15b17-15-13-15-15b17-15-13-15-----------|
A|----------------------------------------------------15~--18---|
F|--------------------------------------------------------------|
C|--------------------------------------------------------------|
G|--------------------------------------------------------------|
C|--------------------------------------------------------------|


D|-------------------------------------18-17-15-------15-17-18-20-20b22-20b22~---|
A|---17-18-17---------17-18-17------------------18-17----------------------------|
F|-----------19-17-19---------19-17-19-------------------------------------------|
C|-------------------------------------------------------------------------------|
G|-------------------------------------------------------------------------------|
C|-------------------------------------------------------------------------------|


D|--------------------------------------------------------------8--------------------10---------|
A|----------------------------------------------------------------------------------------------|
F|---15b17-[17]-15-15-14-14-14----14----14-14b15~----9~b10r9b10---(10)r9b10r9b10r9b10--(10)r9---|
C|-----------------------------15----15---------------------------------------------------------|
G|----------------------------------------------------------------------------------------------|
C|----------------------------------------------------------------------------------------------|


// Alternatively here, this can be hammered-on with your strumming hand like so...
// D|----------------------------------------------------------------------------------------------|
// A|----------------------------------------------------------------------------------------------|
// F|------------------------------------------------9~b10r9b10-17-(10)r9b10r9b10r9b10-19-(10)r9---|
// C|----------------------------------------------------------------------------------------------|
// G|----------------------------------------------------------------------------------------------|
// C|----------------------------------------------------------------------------------------------|


D|---15b17---------------------------------------------|
A|---------17-13-------17-------15-------13------11\---|
F|---------------12-------14\12----12\10----10\9-------|
C|------------------15---------------------------------|
G|-----------------------------------------------------|
C|-----------------------------------------------------|


D|------------------------------------------------------15--13--12--10\---|
A|---------------------------10\---------------11-13-15-------------------|
F|----------------12--10--9-----------10-12-14----------------------------|
C|----------7-8-8---------------------------------------------------------|
G|---7-8-10---------------------------------------------------------------|
C|------------------------------------------------------------------------|


Guitar 2 (Solo Backing)
D|-------------------------------------------------------------------------|
A|-------------------------------------------------------------------------|
F|-------------------------------------------------------------------------|
C|---0~---0-0-0-0-0-0-0-0-0-0-0-0-0-0-3~---3-3-3-3-3-3-3-3-3-3-3-3-3-3-3---|
G|---0~---0-0-0-0-0-0-0-0-0-0-0-0-0-0-3~---3-3-3-3-3-3-3-3-3-3-3-3-3-3-3---|
C|---0~---0-0-0-0-0-0-0-0-0-0-0-0-0-0-3~---3-3-3-3-3-3-3-3-3-3-3-3-3-3-3---|
 PM         . . . . . . . . . . . . .        . . . . . . . . . . . . . .

D|-------------------------------------------------------------------------|
A|-------------------------------------------------------------------------|
F|-------------------------------------------------------------------------|
C|---5~---5-5-5-5-5-5-5-5-5-5-5-5-5-5-8~---8-8-8-8-8-8-8-8-8-8-8-8-8-8-8---|
G|---5~---5-5-5-5-5-5-5-5-5-5-5-5-5-5-8~---8-8-8-8-8-8-8-8-8-8-8-8-8-8-8---|
C|---5~---5-5-5-5-5-5-5-5-5-5-5-5-5-5-8~---8-8-8-8-8-8-8-8-8-8-8-8-8-8-8---|
 PM         . . . . . . . . . . . . .        . . . . . . . . . . . . . .

D|--------------------------------------------------------------------------------------|
A|--------------------------------------------------------------------------------------|
F|---12b14-[14]-12-12-10-10-10----10----10-10b12~---------------------------------------|
C|-----------------------------12----12--------------3~---3-3-3-3-3-3-3-3-3-3-3-3-3-3---|
G|---------------------------------------------------3~---3-3-3-3-3-3-3-3-3-3-3-3-3-3---|
C|---------------------------------------------------3~---3-3-3-3-3-3-3-3-3-3-3-3-3-3---|
 PM                                                         . . . . . . . . . . . . .

D|-------------------------------------------------------------------------|
A|-------------------------------------------------------------------------|
F|-------------------------------------------------------------------------|
C|---5~---5-5-5-5-5-5-5-5-5-5-5-5-5-5-8~---8-8-8-8-8-8-8-8-8-8-8-8-8-8-8---|
G|---5~---5-5-5-5-5-5-5-5-5-5-5-5-5-5-8~---8-8-8-8-8-8-8-8-8-8-8-8-8-8-8---|
C|---5~---5-5-5-5-5-5-5-5-5-5-5-5-5-5-8~---8-8-8-8-8-8-8-8-8-8-8-8-8-8-8---|
 PM         . . . . . . . . . . . . .



Pre-Chorus 3

Guitar 1
D|-----------------------------------------|
A|----------------------------(6)(5)-------| (alternative way of playing it)
F|-----------------------------10-9--------|
C|-------7-----5-----8-----7--------7~-----|
G|---5-5---5-5---5-5---5-5---5-------------| x4
C|-----------------------------------------|
 PM . .   . .   . .   . .   .


Guitar 2
D|--------|
A|--------|
F|--------|
C|---0~---|
G|---0~---| (Let ring until end of 2nd play through of Guitar 1)
C|---0~---|

D|---------------------------------------------------------|
A|---------------------------------------------------------|
F|---------------------------------------------------------|
C|---0-0-0-0-0-0-0-0-0-0-0-0-0-0-0-0-0-0-0-0-0-0-0-0-\\\---|
G|---0-0-0-0-0-0-0-0-0-0-0-0-0-0-0-0-0-0-0-0-0-0-0-0-\\\---|
C|---0-0-0-0-0-0-0-0-0-0-0-0-0-0-0-0-0-0-0-0-0-0-0-0-\\\---|
 PM  . . . . . . . . . . . . . . . . . . . . . . . .


Chorus 3
(Same as Chorus 1 and 2)


Outro

Guitar 1 & 2
D|---------|
A|---------|
F|---------|
C|---12\---|
G|---12\---|
C|---12\---|
Tap to rate this tab
# A B C D E F G H I J K L M N O P Q R S T U V W X Y Z