Song name
# A B C D E F G H I J K L M N O P Q R S T U V W X Y Z

Atreyu - Lip Gloss And Black tab

-----------------------------------------------------------------------------
                             Lip Gloss And Black - Atreyu
-----------------------------------------------------------------------------
Tabbed by:Metalcoreking 
Email:matthessell@live.com

Tuning:CGCFAD

INTRO
D|----------------------------------------------------------------------(x4)|
A|--------------------------------------------------------------------------|
F|-14-7h10 14-7h10-14-7h10-14-7h10------------------------------------------| 
C|----------------------------------14-7h10-14-7h10-14-7h10-14-7h10---------|
G|--------------------------------------------------------------------------|
C|--------------------------------------------------------------------------|

VERSE
D|----------------------------------------------------------------------(x4)|
A|--------------------------------------------------------------------------|
F|--------------------------------------------------------------------------|
C|-0--8---0-10-8-7----------------------------------------------------------|
G|-0--8---0-10-8-7----------------------------------------------------------|
C|-0--8---0-10-8-7----------------------------------------------------------|

CHORUS
D|--------------------------------------------------------------------------|
A|--------------------------------------------------------------------------|
F|-7----7--9--10-9----9--10-12-10----14-12-14-10-10-------------------------|
C|-x----x--x--x--x----x--x--x---x-----x--x--x--x--x-------------------------|
G|-5----5--7--8--7----7--8--10--8----12-10-12--8--8-------------------------|
C|--------------------------------------------------------------------------|
 |                                                                          |
D|--------------------------------------------------------------------------|
A|--------------------------------------------------------------------------|
F|-10-12--14--12----12--10-9------(6)---------------------------------------|
C|-x---x---x---x-----x--x--x------(x)-2nd Time-only-------------------------|
G|-8--10--12--10----10--8--7------(4)---------------------------------------|
C|--------------------------------------------------------------------------|
 |                                                                          |
D|----------------------------------------------------------------------(x2)|
A|--------------------------------------------------------------------------|
F|----------10\----------------10\------------------------------------------|
C|-0-0-0-0--x---0-0---0-0-0-0--x--------------------------------------------|
G|-0-0-0-0--8-\-0-0---0-0-0-0--8-\------------------------------------------|
C|-0-0-0-0------0-0---0-0-0-0-----------------------------------------------|

VERSE
D|--------------------------------------------------------------------------|
A|--------------------------------------------------------------------------|
F|--------------------------------------------------------------------------|
C|-0-0--0-8-8--8-3-3--3--10-10-11-11-----0-0--0-8-8--8-3-3--3--3-3-2-2------|
G|-0-0--0-8-8--8-3-3--3--10-10-11-11-----0-0--0-8-8--8-3-3--3--3-3-2-2------|
C|-0-0--0-8-8--8-3-3--3--10-10-11-11-----0-0--0-8-8--8-3-3--3--3-3-2-2------|

D|--------------------------------------------------------------------------|
A|--------------------------------------------------------------------------|
F|--------------------------------------------------------------------------|
C|-0-0--0-8-8--8-3-3--3--10-10-11-11-----0-0--0-8-8--8----------------------|
G|-0-0--0-8-8--8-3-3--3--10-10-11-11-----0-0--0-8-8--8----------------------|
C|-0-0--0-8-8--8-3-3--3--10-10-11-11-----0-0--0-8-8--8----------------------|

BREAKDOWN
D|---------------------------------------------------------------------(x10)|
A|--------------------------------------------------------------------------|
F|--------------------------------------------------------------------------|
C|--------------------------------------------------------------------------|
G|--------------------------------------------------------------------------|
C|-(0)-000-000-000-000-000-000-000-000-000-000------------------------------|

D|----------------------------------------------------------------------(x5)|
A|--------------------------------------------------------------------------|
F|-------------------------------------------------------------------10-9--5|
C|-7p3-3-3-7p3-3-0-------------------7p3-3-3-7p3-3-0-----------------x--x--x|
G|------------------7p3-3-3-7p3-3-0-------------------7p3-3-3-7p3-3--8--7--3|
C|--------------------------------------------------------------------------|

D|-----------(x8)|--------|-------------(x4)|--------|----------------------|
A|---------------|--------|-----------------|--------|----------------------|
F|---------------|-10-9-5-|--------------10\|-10-9-5-|----------------------|
C|-0-0--0-0-0-0--|--x-x-x-|-0-0--0-0-0-0--x-|--x-x-x-|--0-0-0-0--0--0--0--0-|
G|-0-0--0-0-0-0--|--8-7-3-|-0-0--0-0-0-0--8\|--8-7-3-|--0-0-0-0--0--0--0--0-|
C|-0-0--0-0-0-0--|--------|-0-0--0-0-0-0----|--------|--0-0-0-0--0--0--0--0-|

PIANO PART
D|----------------------------------------10--------------------------------|
A|-----10-11--11-10--10-----------11-10-----10-11--11-10--10----------------|
F|---10------------12----12-10-12-----------------------12-----15-14--------|
C|-12-----------------------------------------------------------------------|
G|--------------------------------------------------------------------------|
C|--------------------------------------------------------------------------|

D|-------------------10----10----10----------------------12----12----12-(x2)|
A|-13----13----13----------------------13----13----13-----------------------|
F|---14----14----14----14----14----14----14----14----14----14----14----14---|
C|-----15----15----------15----15----------15----15----------15----15-------|
G|--------------------------------------------------------------------------|
C|--------------------------------------------------------------------------|

SOLO *Pickslide////////////////
D|--------------------------------------------------------------------------|
A|--------------------------------------------------------------------------|
F|-10-13-11-10--10h11p10----------------------------------------------------|
C|----------------------10--------------------------------------------------|
G|------------------------10\\\---------------------------------------------|
C|---------------------------------10-10-10-10-11-11-11-11------------------|
                                     x  x  x  x  x  x  x  x
D|--------------------------------------------------------------------------|
A|-----------13-------11-------10--------------------13----11----10---------|
F|-12-10-9-10--10-9-10--10-9-10--10-9-10--12-10-9-10--10-9--10-9--9-10-9-10\|
C|--------------------------------------------------------------------------|
G|--------------------------------------------------------------------------|
C|--------------------------------------------------------------------------|

D|------------20--------18--------17----------------------------------------|
A|-/20-18-17-18--18-17-18--18-17-18--18-17-18-------------------------------|
F|--------------------------------------------------------------------------|
C|--------------------------------------------------------------------------|
G|--------------------------------------------------------------------------|
C|--------------------------------------------------------------------------|

D|------------20-----18-----17----------------------------------------------|
A|-/20-18-17-18--18-17--18-17--18-17-18-17-18-------------------------------|
F|--------------------------------------------------------------------------|
C|--------------------------------------------------------------------------|
G|--------------------------------------------------------------------------|
C|--------------------------------------------------------------------------|

D|---------------20--------18--------17-------------------------------------|
A|-/20-18-17h18p17--18-17-18--18-17-18--18-17-18----------------------------|
F|--------------------------------------------------------------------------|
C|--------------------------------------------------------------------------|
G|--------------------------------------------------------------------------|
C|--------------------------------------------------------------------------|

D|-------------20-----18-----17---------------------------------------------|
A|-/20-18-17-18--18-17--18-17--18-17-17h18p17-17----------------------------|
F|--------------------------------------------------------------------------|
C|--------------------------------------------------------------------------|
G|--------------------------------------------------------------------------|
C|--------------------------------------------------------------------------|

************************************

| /   slide up
| \   slide down
| h   hammer-on
| p   pull-off
| ~   vibrato
| +   harmonic
| x   Mute note
| b   Bend
| pb  Pre-bend
| br  Bend release
| pbr Pre-bend release
| brb Bend release bend

************************************
Tap to rate this tab
 
# A B C D E F G H I J K L M N O P Q R S T U V W X Y Z