Atreyu - My Fork In The Road Your Knife In My Back tab

Hey guys this is my first tab so don't be too hard on me.

I spent quite a while watching  Atreyu's Dan Jacob's
tutorial trying to figure this out
so hopefully it's the right way to do it.

Tuning: Drop C
br=Bend String
\=Slide Down
h=Hammer On
p=Pull Off

Bend to:    D#             F#                                A#
            v              v                                 v
D|---------------------------------------------------------------|
A|---------------------------------------------------------12br--|
F|----------9br-----------12b----------9---10-9---12-10----------|
C|-----10------10----10--------10\7--7---7------7-------10-------|
G|-8-8----8--------8----8----------------------------------------|
C|---------------------------------------------------------------|

D|-----------------------------------------------------------------------------|
A|-----------------------------------------------------------------------------|
F|----------9br----------------------------------------------------------------|
C|-----10------10----10----9h10-9--7--7--9--7--10--9--7--12--10--9--9h10p9-----|
G|-8-8----8--------8----8--------------------------------------------------10--|
C|-----------------------------------------------------------------------------|

      
                   ***REPEAT 1ST PART***
D|---------------------------------------------------------------|
A|---------------------------------------------------------12br--|
F|----------9br-----------12br---------9---10-9---12-10----------|
C|-----10-------10----10--------10\7--7---7------7-------10------|
G|-8-8----8--------8----8----------------------------------------|
C|---------------------------------------------------------------|                                                                               

D|-----------------------------------------------------------------------------|
A|-----------------------------------------------------------------------------|
F|----------9br----------------------------------------------------------------|
C|-----10------10----10----9h10-9--77-9-77-10-7777-12-99-10-9999-9h10p9-9------|
G|-8-8----8--------8----8-------------------------------------------------10---|
C|-----------------------------------------------------------------------------|
Tap to rate this tab
 
# A B C D E F G H I J K L M N O P Q R S T U V W X Y Z