Song name
# A B C D E F G H I J K L M N O P Q R S T U V W X Y Z

Atreyu - A Vampires Lament tab

Intro
  Fast Rock Q=183
     D5                               N.C.
 4/4
  Gtr I
     <
                  PM--------------|   TP TP TP TP
  Q  H.        Q  S S E S S E S S E   Q  Q  Q  Q
|------------|----------------------|-------------|
|------------|----------------------|-------------|
|------------|----------------------|-------------|
|----0-------|-0--------------------|-------------|
|----0-------|-0--0-0-0-0-0-0-0-0-0-|-5--6--8--6--|
|----0-------|-0--0-0-0-0-0-0-0-0-0-|-------------|
|
| Gtr II
|    <
|                                     TP TP TP TP
| Q  H.        Q  Q     H             Q  Q  Q  Q
|------------|----------------------|-------------|
|------------|----------------------|-------------|
|------------|----------------------|-------------|
|----0-------|-0--------------------|-7--8--7--5--|
|----0-------|-0--------------------|-------------|
|----0-------|-0--------------------|-------------|


  D5    N.C.
                 6/4
         |-3--|    |-3-| |-3-| |-3-|
  q  q   Q  Q Q    Q Q Q Q Q Q Q Q Q
|---------------|--------------------||
|---------------|--------------------||
|---------------|--------------------||
|-0--0--10--8-7-|--8-7-5-7-5-3-5-3-2-||
|-0--0----------|--------------------||
|-0--0----------|--------------------||
|
|        |-3--|    |-3-| |-3-| |-3-|
| q  q   Q  Q Q    Q Q Q Q Q Q Q Q Q
|---------------|--------------------||
|---------------|--------------------||
|---------------|--------------------||
|-0--0----------|--------------------||
|-0--0--12-10-8-|-10-8-7-8-7-5-7-5-3-||
|-0--0----------|--------------------||


   Verse
    D5                     N.C.
   4/4
       PM--------------|   TP TP TP TP
    Q  S S E S S E S S E   Q  Q  Q  Q
||-----------------------|-------------|
||o----------------------|-------------|
||-----------------------|-------------|
||--0--------------------|-------------|
||o-0--0-0-0-0-0-0-0-0-0-|-5--6--8--6--|
||--0--0-0-0-0-0-0-0-0-0-|-------------|
|
|      PM--------------|   TP TP TP TP
|   Q  S S E S S E S S E   Q  Q  Q  Q
||-----------------------|-------------|
||o----------------------|-------------|
||-----------------------|-------------|
||--0--------------------|-7--8--7--5--|
||o-0--0-0-0-0-0-0-0-0-0-|-------------|
||--0--0-0-0-0-0-0-0-0-0-|-------------|


  D5                     N.C.
     PM--------------|    TP  TP  TP  TP
  Q  S S E S S E S S E    Q   Q   Q   Q
|----------------------|-----------------|
|----------------------|-----------------|
|----------------------|-----------------|
|-0--------------------|-----------------|
|-0--0-0-0-0-0-0-0-0-0-|-10--12--13--12--|
|-0--0-0-0-0-0-0-0-0-0-|-----------------|
|
|    PM--------------|    TP  TP  TP  TP
| Q  S S E S S E S S E    Q   Q   Q   Q
|----------------------|-----------------|
|----------------------|-----------------|
|----------------------|-----------------|
|-0--------------------|--8---7----------|
|-0--0-0-0-0-0-0-0-0-0-|----------8---5--|
|-0--0-0-0-0-0-0-0-0-0-|-----------------|


  D5                     N.C.
     PM--------------|   TP TP TP TP
  Q  S S E S S E S S E   Q  Q  Q  Q
|----------------------|-------------|
|----------------------|-------------|
|----------------------|-------------|
|-0--------------------|-------------|
|-0--0-0-0-0-0-0-0-0-0-|-5--6--8--6--|
|-0--0-0-0-0-0-0-0-0-0-|-------------|
|
|    PM--------------|   TP TP TP TP
| Q  S S E S S E S S E   Q  Q  Q  Q
|----------------------|-------------|
|----------------------|-------------|
|----------------------|-------------|
|-0--------------------|-7--8--7--5--|
|-0--0-0-0-0-0-0-0-0-0-|-------------|
|-0--0-0-0-0-0-0-0-0-0-|-------------|


 1.
  D5                     N.C.
     PM--------------|    TP  TP  TP  TP
  Q  S S E S S E S S E    Q   Q   Q   Q
|----------------------|------------------||
|----------------------|-----------------o||
|----------------------|------------------||
|-0--------------------|------------------||
|-0--0-0-0-0-0-0-0-0-0-|-10--12--13--12--o||
|-0--0-0-0-0-0-0-0-0-0-|------------------||
|
|    PM--------------|    TP  TP  TP  TP
| Q  S S E S S E S S E    Q   Q   Q   Q
|----------------------|------------------||
|----------------------|-----------------o||
|----------------------|------------------||
|-0--------------------|--8--10--13--12---||
|-0--0-0-0-0-0-0-0-0-0-|-----------------o||
|-0--0-0-0-0-0-0-0-0-0-|------------------||


  2.
  D5            N.C.
  q  q  q  q     Q   Q   Q   Q
|-------------|-----------------||
|-------------|-----------------||
|-------------|-----------------||
|-0--0--0--0--|-----------------||
|-0--0--0--0--|-10--12--13--12--||
|-0--0--0--0--|-----------------||
|
| q  q  q  q     Q   Q   Q   Q
|-------------|-----------------||
|-------------|-----------------||
|-------------|-----------------||
|-0--0--0--0--|--8--10--13--12--||
|-0--0--0--0--|-----------------||
|-0--0--0--0--|-----------------||


    D5                     N.C.
       PM--------------|
    Q  S S E S S E S S E   Q  Q  Q  Q
||-----------------------|-------------|
||o----------------------|-------------|
||-----------------------|-------------|
||--0--------------------|-------------|
||o-0--0-0-0-0-0-0-0-0-0-|-5--6--8--6--|
||--0--0-0-0-0-0-0-0-0-0-|-------------|
|
|      PM--------------|
|   Q  S S E S S E S S E   Q  Q  Q  Q
||-----------------------|-------------|
||o----------------------|-------------|
||-----------------------|-------------|
||--0--------------------|-7--8--7--5--|
||o-0--0-0-0-0-0-0-0-0-0-|-------------|
||--0--0-0-0-0-0-0-0-0-0-|-------------|


  D5                     N.C.
     PM--------------|
  Q  S S E S S E S S E    Q   Q   Q   Q
|----------------------|-------------------|
|----------------------|-------------------|
|----------------------|-------------------|
|-0--------------------|-------------------|
|-0--0-0-0-0-0-0-0-0-0-|-10--12--13--12----|
|-0--0-0-0-0-0-0-0-0-0-|-------------------|
|
|    PM--------------|
| Q  S S E S S E S S E    Q   Q   Q   Q
|----------------------|-------------------|
|----------------------|-------------------|
|----------------------|-------------------|
|-0--------------------|--8---7------------|
|-0--0-0-0-0-0-0-0-0-0-|----------8---5----|
|-0--0-0-0-0-0-0-0-0-0-|-------------------|


  D5                     N.C.
     PM--------------|
  Q  S S E S S E S S E   Q  Q  Q  Q
|----------------------|-------------|
|----------------------|-------------|
|----------------------|-------------|
|-0--------------------|-------------|
|-0--0-0-0-0-0-0-0-0-0-|-5--6--8--6--|
|-0--0-0-0-0-0-0-0-0-0-|-------------|
|
|    PM--------------|
| Q  S S E S S E S S E   Q  Q  Q  Q
|----------------------|-------------|
|----------------------|-------------|
|----------------------|-------------|
|-0--------------------|-7--8--7--5--|
|-0--0-0-0-0-0-0-0-0-0-|-------------|
|-0--0-0-0-0-0-0-0-0-0-|-------------|


  D5                     N.C.
     PM--------------|
  Q  S S E S S E S S E    Q   Q   Q   Q
|----------------------|------------------||
|----------------------|-----------------o||
|----------------------|------------------||
|-0--------------------|------------------||
|-0--0-0-0-0-0-0-0-0-0-|-10--12--13--12--o||
|-0--0-0-0-0-0-0-0-0-0-|------------------||
|
|    PM--------------|
| Q  S S E S S E S S E    Q   Q   Q   Q
|----------------------|------------------||
|----------------------|-----------------o||
|----------------------|------------------||
|-0--------------------|--8--10--13--12---||
|-0--0-0-0-0-0-0-0-0-0-|-----------------o||
|-0--0-0-0-0-0-0-0-0-0-|------------------||


 Interlude
  N.CD5        N.CD5        N.C.D5        N.C.D5
 3/4
     PM----|      PM----|       PM----|       PM----|
  Q  E E E E   Q  E E E E    Q  E E E E    Q  E E E E
|------------|------------|-------------|-------------|
|------------|------------|-------------|-------------|
|-7----------|-9----------|-12----------|-10----------|
|------------|------------|-------------|-------------|
|-5--0-0-0-0-|-7--0-0-0-0-|-10--0-0-0-0-|--8--0-0-0-0-|
|----0-0-0-0-|----0-0-0-0-|-----0-0-0-0-|-----0-0-0-0-|
|
|    PM----|      PM----|       PM----|       PM----|
| Q  E E E E   Q  E E E E    Q  E E E E    Q  E E E E
|------------|------------|-------------|-------------|
|------------|------------|-------------|-------------|
|-7----------|-5----------|--9----------|--7----------|
|------------|------------|-------------|-------------|
|-5--0-0-0-0-|-3--0-0-0-0-|--7--0-0-0-0-|--5--0-0-0-0-|
|----0-0-0-0-|----0-0-0-0-|-----0-0-0-0-|-----0-0-0-0-|


  N.CD5          N.CD5        N.C.D5  N.C.        D5
     PM------|      PM----|       PM|             PM----|
  Q  E S S E E   Q  E E E E    Q  E E  E  E    Q  E E E E
|--------------|------------|---------------|--------------|
|--------------|------------|---------------|--------------|
|-7------------|-9----------|-12------12s14-|-10-----------|
|--------------|------------|---------------|--------------|
|-5--0-0-0-0-0-|-7--0-0-0-0-|-10--0-0-10s12-|--8--0-0-0-0--|
|----0-0-0-0-0-|----0-0-0-0-|-----0-0-------|-----0-0-0-0--|
|
|    PM------|      PM----|       PM|             PM----|
| Q  E S S E E   Q  E E E E    Q  E E  E  E    Q  E E E E
|--------------|------------|---------------|--------------|
|--------------|------------|---------------|--------------|
|-7------------|-5----------|--9-------9s10-|--7-----------|
|--------------|------------|---------------|--------------|
|-5--0-0-0-0-0-|-3--0-0-0-0-|--7--0-0--7s=8-|--5--0-0-0-0--|
|----0-0-0-0-0-|----0-0-0-0-|-----0-0-------|-----0-0-0-0--|


  N.CD5          N.CD5        N.C.D5        N.C.D5
     PM------|      PM----|       PM----|       PM----|
  Q  E S S E E   Q  E E E E    Q  E E E E    Q  E E E E
|--------------|------------|-------------|--------------|
|--------------|------------|-------------|--------------|
|-7------------|-9----------|-12----------|-10-----------|
|--------------|------------|-------------|--------------|
|-5--0-0-0-0-0-|-7--0-0-0-0-|-10--0-0-0-0-|--8--0-0-0-0--|
|----0-0-0-0-0-|----0-0-0-0-|-----0-0-0-0-|-----0-0-0-0--|
|
|    PM------|      PM----|       PM----|       PM----|
| Q  E S S E E   Q  E E E E    Q  E E E E    Q  E E E E
|--------------|------------|-------------|--------------|
|--------------|------------|-------------|--------------|
|-7------------|-5----------|--9----------|--7-----------|
|--------------|------------|-------------|--------------|
|-5--0-0-0-0-0-|-3--0-0-0-0-|--7--0-0-0-0-|--5--0-0-0-0--|
|----0-0-0-0-0-|----0-0-0-0-|-----0-0-0-0-|-----0-0-0-0--|


  N.CD5          N.CD5        N.C.
                             4/4
     PM------|      PM----|
  Q  E S S E E   Q  E E E E    E  E  E  E  E  E Q
|--------------|------------|----------------------||
|--------------|------------|----------------------||
|-7------------|-9----------|-12-12-12-12-12s14----||
|--------------|------------|----------------------||
|-5--0-0-0-0-0-|-7--0-0-0-0-|-10-10-10-10-10s12----||
|----0-0-0-0-0-|----0-0-0-0-|----------------------||
|
|    PM------|      PM----|
| Q  E S S E E   Q  E E E E    E  E  E  E  E  E Q
|--------------|------------|----------------------||
|--------------|------------|----------------------||
|-7------------|-5----------|--9--9--9--9--9s10----||
|--------------|------------|----------------------||
|-5--0-0-0-0-0-|-3--0-0-0-0-|--7--7--7--7--7s=8----||
|----0-0-0-0-0-|----0-0-0-0-|----------------------||


   Chorus
    D5
    E E Q   E E E E   +E  E Q   E  E  Q
||------------------|-----------------------|
||o-----------------|-----------------------|
||--7-7-7-----7-7-7-|-(7)-------7--7--7-----|
||--7-7-7-----7-7-7-|-(7)-------7--7--7-----|
||o-5-5-5-----5-5-5-|-(5)-------5--5--5-----|
||------------------|-----------------------|
|
|   PM|   PM  PM|      PM   PM|
|   E E E E E E E E    E  E E E E  E  E +E
||------------------|-----------------------|
||o-----------------|-----------------------|
||------------------|-----------------------|
||------3---3-----5-|-----3-----3h=5--3-(3)-|
||o-5-5-5-5-5-5-5-5-|--5--5-5-5-5-(5)-5-(5)-|
||------------------|-----------------------|


  C5
  E E Q   E E E E   +E  E Q   E  E  Q
|-----------------|-------------------------||
|-----------------|------------------------o||
|-5-5-5-----5-5-5-|-(5)-------5--5--5-------||
|-5-5-5-----5-5-5-|-(5)-------5--5--5-------||
|-3-3-3-----3-3-3-|-(3)-------3--3--3------o||
|-----------------|-------------------------||
|
| PM|   PM  PM|      PM   PM|
| E E E E E E E E    E  E E E E  E  E +E
|-----------------|-------------------------||
|-----------------|------------------------o||
|-----------------|-------------------------||
|-----2---2-----3-|-----2-----2h=3--2-(2)---||
|-3-3-3-3-3-3-3-3-|--3--3-3-3-3-(3)-3-(3)--o||
|-----------------|-------------------------||


    A5
     E  E  Q     E  E  E  E   +E   E  Q     E   E   Q
||--------------------------|------------------------------|
||o-------------------------|------------------------------|
||--------------------------|------------------------------|
||---7--7--7--------7--7--7-|-(7)-----------7---7---7------|
||o--7--7--7--------7--7--7-|-(7)-----------7---7---7------|
||---7--7--7--------7--7--7-|-(7)-----------7---7---7------|
|
|    PM|      PM    PM|        PM     PM|
|    E  E  E  E  E  E  E  E    E   E  E  E  E   E   E  +E
||--------------------------|------------------------------|
||o-------------------------|------------------------------|
||--------------------------|------------------------------|
||--------10----10-------12-|-----10-------10h=12--10-(10)-|
||o-12-12-12-12-12-12-12-12-|-12--12-12-12-12-(12)-12-(12)-|
||--------------------------|------------------------------|


 1.
  G5
   E  E  Q     E  E  E  E   +E   E  Q     E   E   Q
|-------------------------|--------------------------------||
|-------------------------|-------------------------------o||
|-------------------------|--------------------------------||
|--5--5--5--------5--5--5-|-(5)-----------5---5---5--------||
|--5--5--5--------5--5--5-|-(5)-----------5---5---5-------o||
|--5--5--5--------5--5--5-|-(5)-----------5---5---5--------||
|
|  PM|      PM    PM|        PM     PM|
|  E  E  E  E  E  E  E  E    E   E  E  E  E   E   E  +E
|-------------------------|--------------------------------||
|-------------------------|-------------------------------o||
|-------------------------|--------------------------------||
|--------9-----9-------10-|------9--------9h=10---9--(9)---||
|-10-10-10-10-10-10-10-10-|-10--10-10-10-10-(10)-10-(10)--o||
|-------------------------|--------------------------------||


  2.
  G5
   E  E  Q     E  E  E  E   +E   E  Q    E    E    Q
|-------------------------|---------------------------||
|-------------------------|---------------------------||
|-------------------------|---------------------------||
|--5--5--5--------5--5--5-|-(5)----------5----5----5--||
|--5--5--5--------5--5--5-|-(5)----------5----5----5--||
|--5--5--5--------5--5--5-|-(5)----------5----5----5--||
|
|  PM|      PM    PM|        PM     PM|
|                                        |--3---|
|  E  E  E  E  E  E  E  E    E   E  E  E E  E   E  Q
|-------------------------|---------------------------||
|-------------------------|---------------------------||
|-------------------------|---------------------------||
|--------9-----9-------10-|------9-------9h10p==9-----||
|-10-10-10-10-10-10-10-10-|-10--10-10-10----------10--||
|-------------------------|---------------------------||


   Bridge
    F                                 G
                           |-3-|
    Q.   Q.   Q    +Q   Q  E E E Q     Q.    Q.    Q     +Q   Q   Q  Q   3x
||------------3--|-(3)--------------|--------------5--|--(5)-------------||
||o--------------|------6--5h6p5----|-----------------|-------8---------o||
||-------5-------|---------------5--|--------7--------|-----------7------||
||--3------------|------------------|--5--------------|--------------5---||
||o--------------|------------------|-----------------|-----------------o||
||---------------|------------------|-----------------|------------------||
|
|   Q.   Q.   Q    +H      H           Q.    Q.    Q     +H       Q  Q   3x
||---------------|------------------|-----------------|------------------||
||o--------------|------------------|-----------------|-----------------o||
||---------------|------------------|-----------------|------------------||
||--7----7----7--|-(7)-----7--------|--9-----9-----9--|--(9)------9------||
||o-8----8----8--|-(8)-----8--------|-10----10----10--|-(10)-----10--7--o||
||---------------|------------------|-----------------|------------------||


  F                                 G
                         |-3-|
  Q.   Q.   Q    +Q   Q  E E E Q     Q.    Q.    Q     +Q   Q   Q  Q
|-----------3--|-(3)--------------|--------------5--|--(5)------------|
|--------------|------6--5h6p5----|-----------------|-------8---------|
|------5-------|---------------5--|--------7--------|-----------7-----|
|-3------------|------------------|--5--------------|--------------5--|
|--------------|------------------|-----------------|-----------------|
|--------------|------------------|-----------------|-----------------|
|
| Q.   Q.   Q    +H      H           Q.    Q.    Q     +H       H
|--------------|------------------|-----------------|-----------------|
|--------------|------------------|-----------------|-----------------|
|--------------|------------------|-----------------|-----------------|
|-7----7----7--|-(7)-----7--------|--9-----9-----9--|--(9)------9-----|
|-8----8----8--|-(8)-----8--------|-10----10----10--|-(10)-----10-----|
|--------------|------------------|-----------------|-----------------|


  F                          Fm
    W           +W             W           +W
|-^-3--------|--(3)--------|------------|---------||
|-^-6--------|--(6)--------|-^-6--------|--(6)----||
|-^-5--------|--(5)--------|-^-5--------|--(5)----||
|-^-3--------|--(3)--------|-^-6--------|--(6)----||
|------------|-------------|------------|---------||
|------------|-------------|------------|---------||
|
|   W           +W             W           +W
|------------|-------------|------------|---------||
|-^10--------|-(10)--------|-^-9--------|--(9)----||
|-^10--------|-(10)--------|-^10--------|-(10)----||
|-^10--------|-(10)--------|-^10--------|-(10)----||
|-^-8--------|--(8)--------|-^-8--------|--(8)----||
|------------|-------------|------------|---------||


 Break
  Slowly Q.=64
  D5
 6/8
  Gtrs I, II
  H.        +H.        +H.        +H.
|---------|----------|----------|--------|
|---------|----------|----------|--------|
|---------|----------|----------|--------|
|-0-------|-(0)------|-(0)------|-(0)----|
|-0-------|-(0)------|-(0)------|-(0)----|
|-0-------|-(0)------|-(0)------|-(0)----|


  +H.        +H.        +H.        +H.
|----------|----------|----------|--------||
|----------|----------|----------|--------||
|----------|----------|----------|--------||
|----------|----------|----------|--------||
|-(0)------|-(0)------|----------|--------||
|-(0)------|-(0)------|-(0)------|-(0)----||


   Bridge
    N.C.
    Gtr II
    T T S S S S S T T S S S S S   T T S S S S S T T S S S S S
||------------------------------|-----------------------------|
||o-----------------------------|-----------------------------|
||------------------------------|-----------------------------|
||------------------------------|-----------------------------|
||o-5-5-5-8p5-8p5-5-5-5-8p5-8p5-|-3-3-3-7p3-7p3-3-3-3-7p3-7p3-|
||------------------------------|-----------------------------|


  N.C.
   T  T  S  S  S  S  S  T  T  S  S  S  S  S
|-------------------------------------------|
|-------------------------------------------|
|-------------------------------------------|
|-------------------------------------------|
|-10-10-10-13p10-13p10-10-10-10-13p10-13p10-|
|-------------------------------------------|


  T T S  S S  S S T T S  S S  S S
|----------------------------------||
|---------------------------------o||
|----------------------------------||
|----------------------------------||
|-8-8-8-12p8-12p8-8-8-8-12p8-12p8-o||
|----------------------------------||


    N.C.
    Gtr I
    T T S S S S S T T S S S S S   T T S S S S S T T S S S S S
||------------------------------|-----------------------------|
||o-----------------------------|-----------------------------|
||------------------------------|-----------------------------|
||--3-3-3-7p3-7p3-3-3-3-7p3-7p3-|-2-2-2-5p2-5p2-2-2-2-5p2-5p2-|
||o-----------------------------|-----------------------------|
||------------------------------|-----------------------------|
|
|   Gtr II
|   T T S S S S S T T S S S S S   T T S S S S S T T S S S S S
||------------------------------|-----------------------------|
||o-----------------------------|-----------------------------|
||------------------------------|-----------------------------|
||------------------------------|-----------------------------|
||o-5-5-5-8p5-8p5-5-5-5-8p5-8p5-|-3-3-3-7p3-7p3-3-3-3-7p3-7p3-|
||------------------------------|-----------------------------|


  N.C.
   T  T  S  S  S  S  S  T  T  S  S  S  S  S
|-------------------------------------------|
|-------------------------------------------|
|-------------------------------------------|
|--8--8--8-12p=8-12p=8--8--8--8-12p=8-12p=8-|
|-------------------------------------------|
|-------------------------------------------|
|
|  T  T  S  S  S  S  S  T  T  S  S  S  S  S
|-------------------------------------------|
|-------------------------------------------|
|-------------------------------------------|
|-------------------------------------------|
|-10-10-10-13p10-13p10-10-10-10-13p10-13p10-|
|-------------------------------------------|


  T T S  S S  S S T T S  S S  S S  4x
|----------------------------------||
|---------------------------------o||
|----------------------------------||
|-7-7-7-10p7-10p7-7-7-7-10p7-10p7--||
|---------------------------------o||
|----------------------------------||
|
| T T S  S S  S S T T S  S S  S S  4x
|----------------------------------||
|---------------------------------o||
|----------------------------------||
|----------------------------------||
|-8-8-8-12p8-12p8-8-8-8-12p8-12p8-o||
|----------------------------------||


 Outro
  D5                  C5
  S E E S E S S S S   S E E S E S S S S
|-------------------|-------------------|
|-------------------|-------------------|
|-7-7-7-7-7-7-7-7-7-|-7s9-9-9-9-9-9-9-9-|
|-------------------|-------------------|
|-5-5-5-5-5-5-5-5-5-|-5s7-7-7-7-7-7-7-7-|
|-------------------|-------------------|
|
| S E E S E S S S S   S E E S E S S S S
|-------------------|-------------------|
|-------------------|-------------------|
|-7-7-7-7-7-7-7-7-7-|-5-5-5-5-5-5-5-5-5-|
|-7-7-7-7-7-7-7-7-7-|-5-5-5-5-5-5-5-5-5-|
|-5-5-5-5-5-5-5-5-5-|-3-3-3-3-3-3-3-3-3-|
|-------------------|-------------------|


  Bb5                         C5
  S  E  E  S  E  S  S  S  S    S E E S E S S S S
|---------------------------|--------------------|
|---------------------------|--------------------|
|-9s10-10-10-10-10-10-10-10-|-10s9-9-9-9-9-9-9-9-|
|---------------------------|--------------------|
|-7s=8--8--8--8--8--8--8--8-|--8s7-7-7-7-7-7-7-7-|
|---------------------------|--------------------|
|
| S  E  E  S  E  S  S  S  S    S E E S E S S S S
|---------------------------|--------------------|
|---------------------------|--------------------|
|-3--3--3--3--3--3--3--3--3-|--5-5-5-5-5-5-5-5-5-|
|-3--3--3--3--3--3--3--3--3-|--5-5-5-5-5-5-5-5-5-|
|-1--1--1--1--1--1--1--1--1-|--3-3-3-3-3-3-3-3-3-|
|---------------------------|--------------------|


  D5                  C5
  S E E S E S S S S   S E E S E S S S S
|-------------------|-------------------|
|-------------------|-------------------|
|-7-7-7-7-7-7-7-7-7-|-7s9-9-9-9-9-9-9-9-|
|-------------------|-------------------|
|-5-5-5-5-5-5-5-5-5-|-5s7-7-7-7-7-7-7-7-|
|-------------------|-------------------|
|
| S E E S E S S S S   S E E S E S S S S
|-------------------|-------------------|
|-------------------|-------------------|
|-7-7-7-7-7-7-7-7-7-|-5-5-5-5-5-5-5-5-5-|
|-7-7-7-7-7-7-7-7-7-|-5-5-5-5-5-5-5-5-5-|
|-5-5-5-5-5-5-5-5-5-|-3-3-3-3-3-3-3-3-3-|
|-------------------|-------------------|


  Bb5                          C5
   S  E  E  S  E  S  S  S  S    S  E  E  S  E  S  S  S  S
|----------------------------|----------------------------|
|----------------------------|----------------------------|
|-14-14-14-14-14-14-14-14-14-|-12-12-12-12-12-12-12-12-12-|
|----------------------------|----------------------------|
|-12-12-12-12-12-12-12-12-12-|-10-10-10-10-10-10-10-10-10-|
|----------------------------|----------------------------|
|
|  S  E  E  S  E  S  S  S  S    S  E  E  S  E  S  S  S  S
|----------------------------|----------------------------|
|----------------------------|----------------------------|
|--3--3--3--3--3--3--3--3--3-|--5--5--5--5--5--5--5--5--5-|
|--3--3--3--3--3--3--3--3--3-|--5--5--5--5--5--5--5--5--5-|
|--1--1--1--1--1--1--1--1--1-|--3--3--3--3--3--3--3--3--3-|
|----------------------------|----------------------------|


    D5                           C5
     S  E  E  S  E  S  S  S  S    S  E  E  S  E  S  S  S  S
||-----------------------------|----------------------------|
||o----------------------------|----------------------------|
||--11-11-11-11-11-11-11-11-11-|-11s12-12-12-12-12-12-12-12-|
||-----------------------------|----------------------------|
||o--9--9--9--9--9--9--9--9--9-|--9s10-10-10-10-10-10-10-10-|
||-----------------------------|----------------------------|
|
|    S  E  E  S  E  S  S  S  S    S  E  E  S  E  S  S  S  S
||-----------------------------|----------------------------|
||o----------------------------|----------------------------|
||---7--7--7--7--7--7--7--7--7-|--5--5--5--5--5--5--5--5--5-|
||---7--7--7--7--7--7--7--7--7-|--5--5--5--5--5--5--5--5--5-|
||o--5--5--5--5--5--5--5--5--5-|--3--3--3--3--3--3--3--3--3-|
||-----------------------------|----------------------------|


  Bb5                          C5
   S  E  E  S  E  S  S  S  S    S  E  E  S  E  S  S  S  S
|----------------------------|------------------------------||
|----------------------------|-----------------------------o||
|-12s14-14-14-14-14-14-14-14-|-14s12-12-12-12-12-12-12-12---||
|----------------------------|------------------------------||
|-10s12-12-12-12-12-12-12-12-|-12s10-10-10-10-10-10-10-10--o||
|----------------------------|------------------------------||
|
|  S  E  E  S  E  S  S  S  S    S  E  E  S  E  S  S  S  S
|----------------------------|------------------------------||
|----------------------------|-----------------------------o||
|--3--3--3--3--3--3--3--3--3-|--5--5--5--5--5--5--5--5--5---||
|--3--3--3--3--3--3--3--3--3-|--5--5--5--5--5--5--5--5--5---||
|--1--1--1--1--1--1--1--1--1-|--3--3--3--3--3--3--3--3--3--o||
|----------------------------|------------------------------||


  D5
   H.         +H.
|----------|---------*|
|----------|---------*|
|-11-------|-(11)----*|
|----------|---------*|
|--9-------|--(9)----*|
|----------|---------*|
|
|  H.         +H.
|----------|---------*|
|----------|---------*|
|--7-------|--(7)----*|
|--7-------|--(7)----*|
|--5-------|--(5)----*|
|----------|---------*|

Tap to rate this tab
# A B C D E F G H I J K L M N O P Q R S T U V W X Y Z