Guitaretab - guitar tabs
Song name
# A B C D E F G H I J K L M N O P Q R S T U V W X Y Z

Atreyu - Deanne The Arsonist tab

Title:Deanne the Arsonist
Artist:Atreyu
Tuning:Drop C

intro
guitar I
d|-----------------------------------------|
a|0-0-0-0-12-0-12-0-12-0-0-0-0-12-0-12-0-12|
f|-----------------------------------------|
c|-----------------------------------------|
g|-----------------------------------------|
C|-----------------------------------------|

guitar II (comes in after guitar I plays 2x)
d|-----------------------------------------|
a|-----------------------------------------|
f|-----------------------------------------|
c|5--------------------1-------------------|
g|5--------------------1-------------------|
C|5--------------------1-------------------|

guitar I
d|-----------------------------------------|
a|0-0-0-0-12-0-12-0-12-0-0-0-0-12-0-12-0-12|
f|-----------------------------------------|
c|-----------------------------------------|
g|-----------------------------------------|
C|-----------------------------------------|

guitar II
d|-----------------------------------------|
a|-----------------------------------------|
f|-----------------------------------------|
c|8--------------------3-------------------|
g|8--------------------3-------------------|
C|8--------------------3-------------------|


guitar I
d|---------------------------------------------------------------|
a|8-8-6--4-1-3-4------------------8--8--6-4----6\8-6-11--10-8-6-8|
f|---------------------------------------------------------------|2x
c|---------------5-5-7\10-8-7---5--------------------------------|
g|----------------------------8----------------------------------|
C|---------------------------------------------------------------|

guitar II
d|---------------------------------------------------------------|
a|---------------------------------------------------------------|
f|---------------------------------------------------------------|2x
c|5-5-5-5-1-1-1-1-8-8-8-8-3-3-3-3-5-5-5-5-1-1-1-1-8-8-8-8-3-3-3-3|
g|5-5-5-5-1-1-1-1-8-8-8-8-3-3-3-3-5-5-5-5-1-1-1-1-8-8-8-8-3-3-3-3|
C|5-5-5-5-1-1-1-1-8-8-8-8-3-3-3-3-5-5-5-5-1-1-1-1-8-8-8-8-3-3-3-3|

verse
guitar I
d|---------------------------------------------------------------------|
a|---------------------------------------------------------------------|
f|------------------33-3-33-3-33-3-33----------------------------------|2x
c|55-5-55-5-55-5-55-33-3-33-3-33-3-33-33-3-33-3-33-3-33-0-0-0-0-1-1-1-1|
g|55-5-55-5-55-5-55-11-1-11-1-11-1-11-33-3-33-3-33-3-33-0-0-0-0-1-1-1-1|
C|55-5-55-5-55-5-55-------------------33-3-33-3-33-3-33-0-0-0-0-1-1-1-1|

guitar II
d|---------------------------------------------------------------------|
a|---------------------------------------------------------------------|
f|------------------------------------------------------7-7-7-7-8-8-8-8|2x
c|55-5-55-5-55-5-55-11-1-11-1-11-1-11-33-3-33-3-33-3-33-x-x-x-x-x-x-x-x|
g|55-5-55-5-55-5-55-11-1-11-1-11-1-11-33-3-33-3-33-3-33-5-5-5-5-6-6-6-6|
C|55-5-55-5-55-5-55-11-1-11-1-11-1-11-33-3-33-3-33-3-33----------------|


guitar I
d|-----------------------------------------------|
a|-----------------------------------------------|
f|-----------------------------------------------|
c|0-------0-------1-------1-1-1-1----7---8-------|
g|0-0-0-0-0-0-0-0-1-1-1-1-1-1-1-1--5-------5b--8\|
C|0-0-0-0-0-0-0-0-1-1-1-1-1-1-1-1--------------8\|
    . . .   . . .   . . .

guitar II
d|-----------------------------------------------|
a|-----------------------------------------------|
f|-----------------------------------------------|
c|0-------0-------1-------1-1-1-1----10-12-------|
g|0-0-0-0-0-0-0-0-1-1-1-1-1-1-1-1--8-------8b----|
C|0-0-0-0-0-0-0-0-1-1-1-1-1-1-1-1----------------|
    . . .   . . .   . . .

chorus?
guitar I
d|----------------------------------------------------------------|
a|----------------------------------------------------------------|
f|--------------------------------------------------------------4*|
c|----------------------------------------------------------------|
g|0-0---0-0-0---0-0---0-0-0---0-0---0-0-0---0-0---0-0-0---0-0-0---|
C|0-0---0-0-0---0-0---0-0-0---0-0---0-0-0---0-0---0-0-0---0-0-0---|

guitar II
d|----------------------------------------------------------------|
a|----------------------------------------------------------------|
f|----------------------------------------------------------------|
c|---7-----10-8-7-----7----8-7----------7----10-8-7-----7---8-7---|
g|5-----5----------5-----5-----8-----5-----5---------5----5-----8-|
C|----------------------------------------------------------------|
[ Tab from: http://www.guitaretab.com/a/atreyu/46499.html ]
bridge
guitar I & II
d|--------------------------------------------------|             
a|--------------------------------------------------|             
f|--------------------------------------------------|2x
c|6-6-6-6-6-6-6-6-1-1-1-1-1-1-1-1-4-4-4-4-4-4-4-4-0~|
g|6-6-6-6-6-6-6-6-1-1-1-1-1-1-1-1-4-4-4-4-4-4-4-4-0~|
C|6-6-6-6-6-6-6-6-1-1-1-1-1-1-1-1-4-4-4-4-4-4-4-4-0~|
                                                  
solo
guitar I
d|-------------------------------------------------------------|
a|-------------------------------------------------------------|
f|--t10-4h7p4-t10-4h7p4-t10-4h7p4-t10-4h7p4-t12-5h7p5-t12-5h7p5|
c|-------------------------------------------------------------|
g|-------------------------------------------------------------|
C|-------------------------------------------------------------|

guitar II
d|-------------------------------------------------------------|
a|-------------------------------------------------------------|
f|-------------------------------------------------------------|
c|-------------------------------------------------------------|
g|0------------------------------------------------------------|
C|0------------------------------------------------------------|
  .

guitar I (cont.)
d|----------------------------------------------------------------|
a|----------------------------------------------------------------|
f|t12-5h7p5-t14-7h10p7-t14-7h10p7-t14-7h10p7-t14-7h10p7-t14-7h10p7|
c|----------------------------------------------------------------|
g|----------------------------------------------------------------|
C|----------------------------------------------------------------|



guitar I  
d|-----------------------------------------------------------|
a|-----------------------------------------------------------|
f|t10-4h7p4-t10-4h7p4-t10-4h7p4-t10-4h7p4-t12-5h7p5-t12-5h7p5|
c|-----------------------------------------------------------|
g|-----------------------------------------------------------|
C|-----------------------------------------------------------|

guitar II
d|-----------------------------------------------------------|
a|-----------------------------------------------------------|
f|3~--------------------------------------5~-----------------|
c|3~--------------------------------------5~-----------------|
g|1~--------------------------------------3~-----------------|
C|-----------------------------------------------------------|

guitar I (cont.)
d|----------------------------------------------------------------|
a|----------------------------------------------------------------|
f|t12-5h7p5-t14-7h10p7-t14-7h10p7-t14-7h10p7-t14-7h10p7-t14-7h10p7|2x
c|----------------------------------------------------------------|
g|----------------------------------------------------------------|
C|----------------------------------------------------------------|

guitar II (cont.)
d|----------------------------------------------------------------|
a|----------------------------------------------------------------|
f|----------------------8~----------------------------------------|2x
c|----------------------8~----------------------------------------|
g|----------------------6~----------------------------------------|
C|----------------------------------------------------------------|


guitar I  
d|-----------------------------------------------------------|
a|-----------------------------------------------------------|
f|t10-4h7p4-t10-4h7p4-t10-4h7p4-t10-4h7p4-t12-5h7p5-t12-5h7p5|
c|-----------------------------------------------------------|
g|-----------------------------------------------------------|
C|-----------------------------------------------------------|

guitar II
d|-----------------------------------------------------------|
a|t12-3h6p3-t12-3h6p3-t12-3h6p3-t12-3h6p3-t12-4h6p4-t12-4h6p4|
f|-----------------------------------------------------------|
c|-----------------------------------------------------------|
g|-----------------------------------------------------------|
C|-----------------------------------------------------------|


guitar I (cont.)
d|----------------------------------------------------------------|
a|----------------------------------------------------------------|
f|t12-5h7p5-t14-7h10p7-t14-7h10p7-t14-7h10p7-t14-7h10p7-t14-7h10p7|
c|----------------------------------------------------------------|
g|----------------------------------------------------------------|
C|----------------------------------------------------------------|

guitar II (cont.)
d|----------------------------------------------------------------|
a|t12-4h6p4-t12-7h10p7-t14-7h10p7-t14-7h10p7-t14-7h10p7-t14-7h10p7|
f|----------------------------------------------------------------|
c|----------------------------------------------------------------|
g|----------------------------------------------------------------|
C|----------------------------------------------------------------|

end on
guitar I & II
d|---------------|
a|---------------|
f|---------------|
c|---------------|
g|0-0---0-0-0-0-0|
c|0-0---0-0-0-0-0|


questions or comments please e-mail me at x-X_vengeance_X-x@hotmail.com
Related for Deanne The Arsonist tab
×
Deanne The Arsonist