Song name
# A B C D E F G H I J K L M N O P Q R S T U V W X Y Z

Atreyu - Living Each Day Like Youre Already Dead tab

Living Each Day Like You're Already Dead
Atreyu


 Intro/Verse
  N.C.  D5          DmD5  DmD5  DmD5    DsuD5  DsuD5  DsuD5
 4/4
  Gtr I
            PM|       PM|   PM|   PM--|    PM|     PM    PM
  H.        E E     E E E E E E E E   E  E E E  E  E   E E
|---------------||------------------|-----------------------|
|---------------||o-----------------|-----------------------|
|---------------||--7-----7-----7---|----7------7------7----|
|---------------||------------------|-----------------------|
|-----------0-0-||o-5-0-0-5-0-0-5-0-|-0--5-0-0--5--0---5-0--|
|-----------0-0-||----0-0---0-0---0-|-0----0-0-----0-----0--|
|
| Gtr II
|       PM|           PM|   PM|   PM--|    PM|
| H     E E Q       E E E E E E E E   E  E E E  E  E   Q
|---------------||------------------|-----------------------|
|---------------||o-----------------|-----------------------|
|---------------||------------------|-----------------------|
|---------------||------------------|-----------------------|
|-------0-0-----||o-8-0-0-8-0-0-8-0-|-0-10-0-0-10s12--10----|
|-------0-0-----||--0-0-0-0-0-0-0-0-|-0--0-0-0--0-(0)--0----|


  D5
  PM------|   PM------|     PM------|   PM------|
  S S S S E E S S S S E E   S S S S E E S S S S E E
|-------------------------|-------------------------|
|-------------------------|-------------------------|
|-------------------------|-------------------------|
|-------------------------|-------------------------|
|-0-0-0-0-0---0-0-0-0-0---|-0-0-0-0-0---0-0-0-0-0---|
|-0-0-0-0-0---0-0-0-0-0---|-0-0-0-0-0---0-0-0-0-0---|
|
| PM------|   PM------|     PM------|   PM------|
| S S S S E E S S S S E E   S S S S E E S S S S E E
|-------------------------|-------------------------|
|-------------------------|-------------------------|
|-------------------------|-------------------------|
|-------------------------|-------------------------|
|-0-0-0-0-0---0-0-0-0-0---|-0-0-0-0-0---0-0-0-0-0---|
|-0-0-0-0-0---0-0-0-0-0---|-0-0-0-0-0---0-0-0-0-0---|


  DmD5  DmD5  DmD5    DsuD5  DsuD5  D5
    PM|   PM|   PM--|    PM|
  E E E E E E E E   E  E E E  E  E   Q
|-----------------|----------------------|
|-----------------|----------------------|
|-7-----7-----7---|----7------7s=9---9---|
|-----------------|----------------------|
|-5-0-0-5-0-0-5-0-|-0--5-0-0--5s=7---7---|
|---0-0---0-0---0-|-0----0-0-------------|
|
|   PM|   PM|   PM--|    PM|
| E E E E E E E E   E  E E E  E  E   Q
|-----------------|----------------------|
|-----------------|----------------------|
|-----------------|----------------------|
|-----------------|----------------------|
|-8-0-0-8-0-0-8-0-|-0-10-0-0-10s12--12---|
|-0-0-0-0-0-0-0-0-|-0--0-0-0--0-(0)--0---|


  Bbsus2
   Q.    Q.    Q     +E   Q.    E  E  Q
|-----------------|-----------------------||
|-----------------|----------------------o||
|-10----10----10--|-(10)-10----10s=5--5---||
|-----------------|-----------------------||
|--8-----8-----8--|--(8)--8-----8s=3--3--o||
|-----------------|-----------------------||
|
|  Q.    Q.    Q     +E   Q.    E  E  Q
|-----------------|-----------------------||
|-----------------|----------------------o||
|-----------------|-----------------------||
|-10----10----10--|-(10)-10----10-10-10---||
|--8-----8-----8--|--(8)--8-----8--8--8--o||
|--8-----8-----8--|--(8)--8-----8--8--8---||


  AsBbsus2           G5A5             F5
  E  E  +E   E  +Q   E E   +E  Q.   E E Q
|------------------------|-----------------|
|------------------------|-----------------|
|-9s10-(10)-10-(10)--7s9-|-(9)-9----9s5-5--|
|------------------------|-----------------|
|-7s=8--(8)--8--(8)--5s7-|-(7)-7----7s3-3--|
|------------------------|-----------------|
|
| E  E  +E   E  +Q   E E   +E  Q.   E E Q
|------------------------|-----------------|
|------------------------|-----------------|
|------------------------|-----------------|
|-9s10-(10)-10-(10)--5s7-|-(7)-7----7s3-3--|
|-7s=8--(8)--8--(8)--5s7-|-(7)-7----7s3-3--|
|-7s=8--(8)--8--(8)--5s7-|-(7)-7----7s3-3--|


  D5
     PM------------------------|
  Q  E E E E E E   E E E E E E E E
|----------------|-----------------||
|----------------|-----------------||
|-7--------------|-----------------||
|----------------|---------------0-||
|-5--0-0-0-0-0-0-|-0-0-0-0-0-0-0-0-||
|----0-0-0-0-0-0-|-0-0-0-0-0-0-0-0-||
|
|    PM------------------------|
| Q  E E E E E E   E E E E E E E E
|----------------|-----------------||
|----------------|-----------------||
|----------------|-----------------||
|-0--------------|---------------0-||
|-0--0-0-0-0-0-0-|-0-0-0-0-0-0-0-0-||
|-0--0-0-0-0-0-0-|-0-0-0-0-0-0-0-0-||


   Chorus
    D5                                   AbG5D5F5
    Gtrs I, II
         PM----------------------------|
    +Q   S S E S S E S S E   S S E S S E E E E E
||-------------------------|---------------------|
||o------------------------|---------------------|
||-------------------------|---------------------|
||--(0)--------------------|-------------6s5-0-3-|
||o-(0)--0-0-0-0-0-0-0-0-0-|-0-0-0-0-0-0-6s5-0-3-|
||--(0)--0-0-0-0-0-0-0-0-0-|-0-0-0-0-0-0-6s5-0-3-|


                              N.C.  D5
  +E  E E E E E E E   E E E E E E E E  3x
|-------------------|------------------||
|-------------------|-----------------o||
|-------------------|---------5s7-7----||
|-(3)-3-3-3-3-3-3-3-|-3-3-3-3-------0--||
|-(3)-3-3-3-3-3-3-3-|-3-3-3-3-3s5-5-0-o||
|-(3)-3-3-3-3-3-3-3-|-3-3-3-3-------0--||


  D5                                   AbG5D5F5
       PM----------------------------|
  +Q   S S E S S E S S E   S S E S S E E E E E
|------------------------|---------------------|
|------------------------|---------------------|
|------------------------|---------------------|
|-(0)--------------------|-------------6s5-0-3-|
|-(0)--0-0-0-0-0-0-0-0-0-|-0-0-0-0-0-0-6s5-0-3-|
|-(0)--0-0-0-0-0-0-0-0-0-|-0-0-0-0-0-0-6s5-0-3-|


                              N.C.
  +E  E E E E E E E   E E E E E E Q
|-------------------|-----------------||
|-------------------|-----------------||
|-------------------|---------5s7-7---||
|-(3)-3-3-3-3-3-3-3-|-3-3-3-3---------||
|-(3)-3-3-3-3-3-3-3-|-3-3-3-3-3s5-5---||
|-(3)-3-3-3-3-3-3-3-|-3-3-3-3---------||


   Bridge
    D5
    Gtr I
     Q    E  E  +E  E  Q     +E   E  Q   E  E  E  E
||------------------------|-------------------------|
||o-----------------------|-------------------------|
||------------------------|-------------------------|
||---0----0--0--(0)-0--0--|--(0)--0--0---0--0--0--0-|
||o--0----0--0--(0)-0--0--|--(0)--0--0---0--0--0--0-|
||---0----0--0--(0)-0--0--|--(0)--0--0---0--0--0--0-|
|
|   Gtr II
|    Q   +E  Q.        Q     +E   E  Q   E  E  E  E
||------------------------|-------------------------|
||o-----------------------|-------------------------|
||--14--(14)S9--------10--|-(10)-10-10--10-10-10-10-|
||------------------------|-------------------------|
||o-12--(12)S7---------8--|--(8)--8--8---8--8--8--8-|
||------------------------|-------------------------|


  Bb5
   Q    E  E  +E  E  Q     +E   E  Q   E  E  E  E
|-----------------------|--------------------------|
|-----------------------|--------------------------|
|--3----3--3--(3)-3--3--|--(3)--3--3---3--3--3--3--|
|--3----3--3--(3)-3--3--|--(3)--3--3---3--3--3--3--|
|--1----1--1--(1)-1--1--|--(1)--1--1---1--1--1--1--|
|-----------------------|--------------------------|
|
|  Q   +E  Q.        Q     +E   E  Q   E  E  E  E
|-----------------------|--------------------------|
|-----------------------|--------------------------|
|-14--(14)S9--------10--|-(10)-10-10--10-10-10-10--|
|-----------------------|--------------------------|
|-12--(12)S7---------8--|--(8)--8--8---8--8--8--8--|
|-----------------------|--------------------------|


  F5
   Q    E  E  +E  E  Q     +E   E  Q   E  E  E  E
|-----------------------|-------------------------|
|-----------------------|-------------------------|
|-----------------------|-------------------------|
|--3----3--3--(3)-3--3--|--(3)--3--3---3--3--3--3-|
|--3----3--3--(3)-3--3--|--(3)--3--3---3--3--3--3-|
|--3----3--3--(3)-3--3--|--(3)--3--3---3--3--3--3-|
|
|  Q   +E  Q.        Q     +E   E  Q   E  E  E  E
|-----------------------|-------------------------|
|-----------------------|-------------------------|
|-14--(14)S9--------10--|-(10)-10-10--10-10-10-10-|
|-----------------------|-------------------------|
|-12--(12)S7---------8--|--(8)--8--8---8--8--8--8-|
|-----------------------|-------------------------|


  C5
   Q    E   E  +E  E  Q     +E   E  Q   E  E  E  E
|------------------------|--------------------------||
|------------------------|-------------------------o||
|--5----5---5--(5)-5--5--|--(5)--5--5---5--5--5--5--||
|--5----5---5--(5)-5--5--|--(5)--5--5---5--5--5--5--||
|--3----3---3--(3)-3--3--|--(3)--3--3---3--3--3--3-o||
|------------------------|--------------------------||
|
|  Q   +E   Q.        Q     +E   E  Q   E  E  E  E
|------------------------|--------------------------||
|------------------------|-------------------------o||
|-14--(14)S15--------12--|-(12)-12-12--12-12-12-12--||
|------------------------|--------------------------||
|-12--(12)S13--------10--|-(10)-10-10--10-10-10-10-o||
|------------------------|--------------------------||


 Chorus
  D5                                 AbG5D5F5
  Gtrs I, II
     PM----------------------------|
  Q  S S E S S E S S E   S S E S S E E E E E
|----------------------|---------------------|
|----------------------|---------------------|
|----------------------|---------------------|
|-0--------------------|-------------6s5-0-3-|
|-0--0-0-0-0-0-0-0-0-0-|-0-0-0-0-0-0-6s5-0-3-|
|-0--0-0-0-0-0-0-0-0-0-|-0-0-0-0-0-0-6s5-0-3-|


                              N.C.  D5
  +E  E E E E E E E   E E E E E E E E
|-------------------|------------------|
|-------------------|------------------|
|-------------------|---------5s7------|
|-(3)-3-3-3-3-3-3-3-|-3-3-3-3-------0--|
|-(3)-3-3-3-3-3-3-3-|-3-3-3-3-3s5---0--|
|-(3)-3-3-3-3-3-3-3-|-3-3-3-3-------0--|


  D5                                   AbG5D5F5
       PM----------------------------|
  +Q   S S E S S E S S E   S S E S S E E E E E
|------------------------|---------------------|
|------------------------|---------------------|
|------------------------|---------------------|
|-(0)--------------------|-------------6s5-0-3-|
|-(0)--0-0-0-0-0-0-0-0-0-|-0-0-0-0-0-0-6s5-0-3-|
|-(0)--0-0-0-0-0-0-0-0-0-|-0-0-0-0-0-0-6s5-0-3-|


                              N.C.  D5
  +E  E E E E E E E   E E E E E E E E
|-------------------|------------------|
|-------------------|------------------|
|-------------------|---------5s7------|
|-(3)-3-3-3-3-3-3-3-|-3-3-3-3-------0--|
|-(3)-3-3-3-3-3-3-3-|-3-3-3-3-3s5---0--|
|-(3)-3-3-3-3-3-3-3-|-3-3-3-3-------0--|


  D5                                   AbG5D5F5
       PM----------------------------|
  +Q   S S E S S E S S E   S S E S S E E E E E
|------------------------|---------------------|
|------------------------|---------------------|
|------------------------|---------------------|
|-(0)--------------------|-------------6s5-0-3-|
|-(0)--0-0-0-0-0-0-0-0-0-|-0-0-0-0-0-0-6s5-0-3-|
|-(0)--0-0-0-0-0-0-0-0-0-|-0-0-0-0-0-0-6s5-0-3-|


                                       N.C.  D5
       PM----------------------------|
  +Q   S S E S S E S S E   S S E S S E E E E E
|------------------------|-----------------------|
|------------------------|-----------------------|
|------------------------|-------------5s7-------|
|-(3)--------------------|-------------------0---|
|-(3)--3-3-3-3-3-3-3-3-3-|-3-3-3-3-3-3-3s5---0---|
|-(3)--3-3-3-3-3-3-3-3-3-|-3-3-3-3-3-3-------0---|


  D5                                   AbG5D5F5
       PM----------------------------|
  +Q   S S E S S E S S E   S S E S S E E E E E
|------------------------|---------------------|
|------------------------|---------------------|
|------------------------|---------------------|
|-(0)--------------------|-------------6s5-0-3-|
|-(0)--0-0-0-0-0-0-0-0-0-|-0-0-0-0-0-0-6s5-0-3-|
|-(0)--0-0-0-0-0-0-0-0-0-|-0-0-0-0-0-0-6s5-0-3-|


                                       N.C.
       PM----------------------------|
  +Q   S S E S S E S S E   S S E S S E E E Q
|------------------------|----------------------||
|------------------------|----------------------||
|------------------------|-------------5s7-7----||
|-(3)--------------------|----------------------||
|-(3)--3-3-3-3-3-3-3-3-3-|-3-3-3-3-3-3-3s5-5----||
|-(3)--3-3-3-3-3-3-3-3-3-|-3-3-3-3-3-3----------||


 Interlude
  D5
  W          +W           q  q  q  q    q  q  q  q
|----------|------------|-------------|--------------|
|----------|------------|-------------|--------------|
|----------|------------|-------------|--------------|
|-0--------|-(0)--------|-0--0--0--0--|-0--0--0--0---|
|-0--------|-(0)--------|-0--0--0--0--|-0--0--0--0---|
|-0--------|-(0)--------|-0--0--0--0--|-0--0--0--0---|


  N.C.
  Gtr I
  E E E E E E E E   E E E E E E E E   E E E E E E E E   E E E E E E E E
|-----------------|-----------------|-----------------|------------------|
|-----------------|-----------------|-----------------|------------------|
|-----------------|-----------------|-----------------|------------------|
|-5-4-3-2---------|-5-4-3-2---------|-5-4-3-2---------|-5-4-3-2----------|
|---------5-4-3-2-|---------5-4-3-2-|---------5-4-3-2-|---------5-4-3-2--|
|-----------------|-----------------|-----------------|------------------|


  D5
  Gtrs I, II
  q  q  q  q    q  q  q  q
|-------------|-------------|
|-------------|-------------|
|-------------|-------------|
|-0--0--0--0--|-0--0--0--0--|
|-0--0--0--0--|-0--0--0--0--|
|-0--0--0--0--|-0--0--0--0--|


  N.C.
  Gtr I
  E E E E E E E E   E E E E E E E E   E E E E E E E E   E E E E E E E E
|-----------------|-----------------|-----------------|------------------|
|-----------------|-----------------|-----------------|------------------|
|-----------------|-----------------|-----------------|------------------|
|-5-4-3-2---------|-5-4-3-2---------|-5-4-3-2---------|-5-4-3-2----------|
|---------5-4-3-2-|---------5-4-3-2-|---------5-4-3-2-|---------5-4-3-2--|
|-----------------|-----------------|-----------------|------------------|
|
| Gtr II
| E E E E E E E E   E E E E E E E E   E E E E E E E E   E E E E E E E E
|-----------------|-----------------|-----------------|------------------|
|-----------------|-----------------|-----------------|------------------|
|-7-6-5-4---------|-7-6-5-4---------|-7-6-5-4---------|-7-6-5-4----------|
|---------7-6-5-4-|---------7-6-5-4-|---------7-6-5-4-|---------7-6-5-4--|
|-----------------|-----------------|-----------------|------------------|
|-----------------|-----------------|-----------------|------------------|


    D5
    Gtrs I, II
    q  q  q  q    q  q  q  q
||--------------|-------------|
||o-------------|-------------|
||--------------|-------------|
||--0--0--0--0--|-0--0--0--0--|
||o-0--0--0--0--|-0--0--0--0--|
||--0--0--0--0--|-0--0--0--0--|


  N.C.
  Gtr I
  E E E E E E E E   E E E E E E E E   E E E E E E E E   E E E E E E E E
|-----------------|-----------------|-----------------|-------------------||
|-----------------|-----------------|-----------------|------------------o||
|-----------------|-----------------|-----------------|-------------------||
|-5-4-3-2---------|---------2-3-4-5-|-5-4-3-2---------|---------2-3-4-5---||
|---------5-4-3-2-|-2-3-4-5---------|---------5-4-3-2-|-2-3-4-5----------o||
|-----------------|-----------------|-----------------|-------------------||
|
| Gtr II
| E E E E E E E E   E E E E E E E E   E E E E E E E E   E E E E E E E E
|-----------------|-----------------|-----------------|-------------------||
|-----------------|-----------------|-----------------|------------------o||
|-7-6-5-4---------|-7-6-5-4---------|---------4-5-6-7-|---------4-5-6-7---||
|---------7-6-5-4-|---------7-6-5-4-|-4-5-6-7---------|-4-5-6-7-----------||
|-----------------|-----------------|-----------------|------------------o||
|-----------------|-----------------|-----------------|-------------------||


 Outro
  D5
  Gtrs I, II
  W          +W           W          +W
|----------|------------|----------|--------|
|----------|------------|----------|--------|
|----------|------------|----------|--------|
|-0--------|-(0)--------|-0--------|-(0)----|
|-0--------|-(0)--------|-0--------|-(0)----|
|-0--------|-(0)--------|-0--------|-(0)----|


  D5
  Gtr I
   E E  E  E  E  E  E  E    E  E  E  E  E  E  E  E
|-10-9-------------------|-10--9-------------------|
|------10-12-12-10-------|-------10-12-12-10-------|
|------------------12-11-|-------------------12-11-|
|------------------------|-------------------------|
|------------------------|-------------------------|
|------------------------|-------------------------|
|
| Gtr II
|  W                       +W
|------------------------|-------------------------|
|------------------------|-------------------------|
|------------------------|-------------------------|
|--0---------------------|-(0)---------------------|
|--0---------------------|-(0)---------------------|
|--0---------------------|-(0)---------------------|


   E E  E  E  E  E  E  E    E  E  E  E  E  E  E  E
|-10-9-------------------|-10--9--------------------|
|------10-12-12-10-------|-------10-12-12-10--------|
|------------------12-11-|-------------------12-11--|
|------------------------|--------------------------|
|------------------------|--------------------------|
|------------------------|--------------------------|
|
|  W                       +W
|------------------------|--------------------------|
|------------------------|--------------------------|
|------------------------|--------------------------|
|--0---------------------|-(0)----------------------|
|--0---------------------|-(0)----------------------|
|--0---------------------|-(0)----------------------|


  D5
   E E  E  E  E  E  E  E    E E  E  E  E  E  E  E
|-10-9-------------------|-10-9-------------------|
|------10-12-12-10-------|------10-12-12-10-------|
|------------------12-11-|------------------12-11-|
|------------------------|------------------------|
|------------------------|------------------------|
|------------------------|------------------------|
|
|  E E  E  E  E  E  E  E    E E  E  E  E  E  E  E
|------------------------|------------------------|
|------------------------|------------------------|
|------------------------|------------------------|
|--0-0--0--0--0--0--0--0-|--0-0--0--0--0--0--0--0-|
|--0-0--0--0--0--0--0--0-|--0-0--0--0--0--0--0--0-|
|--0-0--0--0--0--0--0--0-|--0-0--0--0--0--0--0--0-|


  G5
   E E  E  E  E  E  E  E    E E  E  E  E  E  E  E
|-10-9-------------------|-10-9--------------------|
|------10-12-12-10-------|------10-12-12-10--------|
|------------------12-11-|------------------12-11--|
|------------------------|-------------------------|
|------------------------|-------------------------|
|------------------------|-------------------------|
|
|  E E  E  E  E  E  E  E    E E  E  E  E  E  E  E
|------------------------|-------------------------|
|------------------------|-------------------------|
|------------------------|-------------------------|
|--5-5--5--5--5--5--5--5-|--5-5--5--5--5--5--5--5--|
|--5-5--5--5--5--5--5--5-|--5-5--5--5--5--5--5--5--|
|--5-5--5--5--5--5--5--5-|--5-5--5--5--5--5--5--5--|


  E5
   E E  E  E  E  E  E  E    E E  E  E  E  E  E  E
|-10-9-------------------|-10-9-------------------|
|------10-12-12-10-------|------10-12-12-10-------|
|------------------12-11-|------------------12-11-|
|------------------------|------------------------|
|------------------------|------------------------|
|------------------------|------------------------|
|
|  E E  E  E  E  E  E  E    E E  E  E  E  E  E  E
|------------------------|------------------------|
|------------------------|------------------------|
|------------------------|------------------------|
|--2-2--2--2--2--2--2--2-|--2-2--2--2--2--2--2--2-|
|--2-2--2--2--2--2--2--2-|--2-2--2--2--2--2--2--2-|
|--2-2--2--2--2--2--2--2-|--2-2--2--2--2--2--2--2-|


  G5
   E E  E  E  E  E  E  E    E E  E  E  E  E  E  E
|-10-9-------------------|-10-9--------------------|
|------10-12-12-10-------|------10-12-12-10--------|
|------------------12-11-|------------------12-11--|
|------------------------|-------------------------|
|------------------------|-------------------------|
|------------------------|-------------------------|
|
|  E E  E  E  E  E  E  E    E E  E  E  E  E  E  E
|------------------------|-------------------------|
|------------------------|-------------------------|
|------------------------|-------------------------|
|--5-5--5--5--5--5--5--5-|--5-5--5--5--5--5--5--5--|
|--5-5--5--5--5--5--5--5-|--5-5--5--5--5--5--5--5--|
|--5-5--5--5--5--5--5--5-|--5-5--5--5--5--5--5--5--|


  D5
   E E  E  E  E  E  E  E    E E  E  E  E  E  E  E
|-10-9-------------------|-10-9-------------------|
|------10-12-12-10-------|------10-12-12-10-------|
|------------------12-11-|------------------12-11-|
|------------------------|------------------------|
|------------------------|------------------------|
|------------------------|------------------------|
|
|  PM-----|                 PM-----|
|  E E  E  E  E  E  E  E    E E  E  E  E  E  E  E
|------------------------|------------------------|
|------------------------|------------------------|
|------------------------|------------------------|
|-------------0--0--0--0-|-------------0--0--0--0-|
|--0-0--0--0--0--0--0--0-|--0-0--0--0--0--0--0--0-|
|--0-0--0--0--0--0--0--0-|--0-0--0--0--0--0--0--0-|


  G5
   E E  E  E  E  E  E  E    E E  E  E  E  E  E  E
|-10-9-------------------|-10-9--------------------|
|------10-12-12-10-------|------10-12-12-10--------|
|------------------12-11-|------------------12-11--|
|------------------------|-------------------------|
|------------------------|-------------------------|
|------------------------|-------------------------|
|
|  PM-----|                 PM-----|
|  E E  E  E  E  E  E  E    E E  E  E  E  E  E  E
|------------------------|-------------------------|
|------------------------|-------------------------|
|------------------------|-------------------------|
|-------------5--5--5--5-|-------------5--5--5--5--|
|--5-5--5--5--5--5--5--5-|--5-5--5--5--5--5--5--5--|
|--5-5--5--5--5--5--5--5-|--5-5--5--5--5--5--5--5--|


  E5
   E E  E  E  E  E  E  E    E E  E  E  E  E  E  E
|-10-9-------------------|-10-9-------------------|
|------10-12-12-10-------|------10-12-12-10-------|
|------------------12-11-|------------------12-11-|
|------------------------|------------------------|
|------------------------|------------------------|
|------------------------|------------------------|
|
|  PM-----|                 PM-----|
|  E E  E  E  E  E  E  E    E E  E  E  E  E  E  E
|------------------------|------------------------|
|------------------------|------------------------|
|------------------------|------------------------|
|-------------2--2--2--2-|-------------2--2--2--2-|
|--2-2--2--2--2--2--2--2-|--2-2--2--2--2--2--2--2-|
|--2-2--2--2--2--2--2--2-|--2-2--2--2--2--2--2--2-|


  G5
   E E  E  E  E  E  E  E    E E  E  E  E  E  E  E
|-10-9-------------------|-10-9--------------------|
|------10-12-12-10-------|------10-12-12-10--------|
|------------------12-11-|------------------12-11--|
|------------------------|-------------------------|
|------------------------|-------------------------|
|------------------------|-------------------------|
|
|  PM-----|                 PM-----|
|  E E  E  E  E  E  E  E    E E  E  E  E  E  E  E
|------------------------|-------------------------|
|------------------------|-------------------------|
|------------------------|-------------------------|
|-------------5--5--5--5-|-------------5--5--5--5--|
|--5-5--5--5--5--5--5--5-|--5-5--5--5--5--5--5--5--|
|--5-5--5--5--5--5--5--5-|--5-5--5--5--5--5--5--5--|


  N.C.
   E E  E  E  E  E  E  E    E E  E  E  E  E  E  E
|-10-9-------------------|-10-9-------------------|
|------10-12-12-10-------|------10-12-12-10-------|
|------------------12-11-|------------------12-11-|
|------------------------|------------------------|
|------------------------|------------------------|
|------------------------|------------------------|
|
|  E E  E  E  E  E  E  E    E E  E  E  E  E  E  E
|------------------------|------------------------|
|-10-8--7--8--8--7-------|-10-8--7--8--8--7-------|
|-------------------9--7-|-------------------9--7-|
|------------------------|------------------------|
|------------------------|------------------------|
|------------------------|------------------------|


   E E  E  E  E  E  E  E    E E  E  E  E  E  E  E
|-10-9-------------------|-10-9--------------------|
|------10-12-12-10-------|------10-12-12-10--------|
|------------------12-11-|------------------12-11--|
|------------------------|-------------------------|
|------------------------|-------------------------|
|------------------------|-------------------------|
|
|  E E  E  E  E  E  E  E    E E  E  E  E  E  E  E
|------------------------|-------------------------|
|-10-8--7--8--8--7-------|-10-8--7--8--8--7--------|
|-------------------9--7-|-------------------9--7--|
|------------------------|-------------------------|
|------------------------|-------------------------|
|------------------------|-------------------------|


  N.C.
   E E  E  E  E  E  E  E    E E  E  E  E  E  E  E
|-10---------------------|-10---------------------|
|------10----12----------|------10----12----------|
|------------------12----|------------------12----|
|------------------------|------------------------|
|------------------------|------------------------|
|------------------------|------------------------|
|
|  E E  E  E  E  E  E  E    E E  E  E  E  E  E  E
|----9-------------------|----9-------------------|
|---------12----10-------|---------12----10-------|
|---------------------11-|---------------------11-|
|------------------------|------------------------|
|------------------------|------------------------|
|------------------------|------------------------|


   E E  E  E  E  E  E  E    E E  E  E  E  E  E  E
|-10---------------------|-10----------------------|
|------10----12----------|------10----12-----------|
|------------------12----|------------------12-----|
|------------------------|-------------------------|
|------------------------|-------------------------|
|------------------------|-------------------------|
|
|  E E  E  E  E  E  E  E    E E  E  E  E  E  E  E
|----9-------------------|----9--------------------|
|---------12----10-------|---------12----10--------|
|---------------------11-|---------------------11--|
|------------------------|-------------------------|
|------------------------|-------------------------|
|------------------------|-------------------------|


  D5
  Gtrs I, II
  PM|   PM--|
  E E E E E E Q    W
|----------------|------*|
|----------------|------*|
|----------------|------*|
|----------------|------*|
|-0-0---0-0-0----|------*|
|-0-0---0-0-0----|------*|
Tap to rate this tab
# A B C D E F G H I J K L M N O P Q R S T U V W X Y Z