Guitaretab - guitar tabs
Song name
# A B C D E F G H I J K L M N O P Q R S T U V W X Y Z

Atreyu - The Remembrance Ballad tab

Intro
Guitar 1
 D|--------------------------------------------------------------------|
 A|-------15-17-18---17-18--13-13--15p13h15----------15-17-18---17h18--|
 F|----14-----------------------------------------14-------------------|
 C|-12-----------------------------------------12----------------------|
 G|--------------------------------------------------------------------|
 C|--------------------------------------------------------------------|

 D|-17-18--20-20--18p17p15----17br-15\13-12h13-10---------------------|
 A|-------------------------------------------------------------------|
 F|-------------------------------------------------------------------|
 C|-------------------------------------------------------------------|
 G|-------------------------------------------------------------------|
 C|-------------------------------------------------------------------|

Guitar 2
 D|-------------------------------------------------------------------|
 A|-------------------------------------------------------------------|
 F|-------------------------------------------------------------------|
 C|-0~~~-----------10~~~-------------------0~~~-------------10~~~-----|
 G|-0~~~------------8~~~-------------------0~~~--------------8~~~-----|
 C|-0~~~------------8~~~-------------------0~~~--------------8~~~-----|

Verse 
Guitar 1
 D|-------------------------------------------------------------------|
 A|-------15-17-18--17-18---13-13--15p13h15---------------15-17-18----|
 F|----14----------------------------------------------14-------------|
 C|-12----------------------------------------------12----------------|
 G|-------------------------------------------------------------------|
 C|-------------------------------------------------------------------|

 D|-------17-18--20-20h22-18---17br-15\13-12h13-10--------------------|
 A|-17h18----------------------------------------------------15-17-18-|
 F|-------------------------------------------------------14----------|
 C|----------------------------------------------------12-------------|
 G|-------------------------------------------------------------------|
 C|-------------------------------------------------------------------|

 D|-------------------------------------------------17-18--20-22br----|
 A|-17-18--13-13--15p13h15---------15-17-18---17h18-------------------|
 F|-----------------------------14------------------------------------|
 C|--------------------------12---------------------------------------|
 G|-------------------------------------------------------------------|
 C|-------------------------------------------------------------------|

 D|-20p18h20---22-20-18-17--------------------------------------------|
 A|------------------------18-17\15-----------------------------------|
 F|---------------------------------14~~~-----------------------------|
 C|-------------------------------------------------------------------|
 G|-------------------------------------------------------------------|
 C|-------------------------------------------------------------------|

Guitar 2
 D|-------------------------------------------------------------------|
 A|-------------------------------------------------------------------|
 F|-------------------------------------------------------------------|
 C|---0000000000000000--1010101010101010------------------------------|
 G|---0000000000000000---8888888888888888-----------------------------|
 C|---0000000000000000---8888888888888888-----------------------------|
(end on this)
 D|----------------|
 A|----------------|
 F|----------------|
 C|--10~~~---------|
 G|---8~~~---------|
 C|---8~~~---------|

Guitar 1
 D|-------------------------------------------------------------------|
 A|-------------------------------------------------------------------|
 F|-------------------------------------------------------------------|
 C|--15-14\-10-12~~~~---15-14\-10-8~~/10~~~--15-14\-10-12~~~---15-14/-|
 G|-------------------------------------------------------------------|
 C|-------------------------------------------------------------------|
[ Tab from: http://www.guitaretab.com/a/atreyu/51012.html ]
 D|-------------------------------------------------------------------|
 A|-------------------------------------------------------------------|
 F|-------------------------------------------------------------------|
 C|-10-8~~--17-15-14h15p14\12----(all this 2x)------------------------|
 G|-------------------------------------------------------------------|
 C|-------------------------------------------------------------------|

Guitar 2
 D|-------------------------------------------------------------------|
 A|-------------------------------------------------------------------|
 F|--------------------------------------------------------(4x)-------|
 C|-0-0-0-0-0-0-0-0-0-0-0-0-101010101010101010101010------------------|
 G|-0-0-0-0-0-0-0-0-0-0-0-0-8-8-8-8-8-8-8-8-8-8-8-8-------------------|
 C|-0-0-0-0-0-0-0-0-0-0-0-0-8-8-8-8-8-8-8-8-8-8-8-8-------------------|
  pm...........     ...................     .......

Prechorus

Guitar 1
 D|-------------------------------------------------------------------|
 A|-------------------------------------------------------------------|
 F|-------------------------------------------------------------------|
 C|----------------------------------------------------(2x)-----------|
 G|-10p8-h10---12p10-h12---13p12-h13----13p12-h13---------------------|
 C|-------------------------------------------------------------------|

Guitar 2
 D|-------------------------------------------------------------------|
 A|-------------------------------------------------------------------|
 F|----------------------------------------------(x2)-----------------|
 C|-5555555577777777888888881010101010101010--------------------------|
 G|-5555555577777777888888881010101010101010--------------------------|
 C|-5555555577777777888888881010101010101010--------------------------|

Chorus

Guitar 1
 D|------------------------------------------|------------------------|
 A|------------------------------------------|------------------------|
 F|-------10-9---10-------10-9---10---(2x)---|------10-9---10---(2x)--|
 C|----10--------------10--------------------|----8-------------------|
 G|--8---------------8-----------------------|------------------------|
 C|------------------------------------------|--10--------------------|

 D|--------------------------------------------------|
 A|--------------------------------------------------|
 F|-----10-9---10---------10-9---10----------(2x)----|
 C|---7-----------------8----------------------------|
 G|--------------------------------------------------|
 C|-7-----------------8------------------------------|

Guitar 2
 D|-------------------------------------------------------------------|
 A|-------------------------------------------------------------------|
 F|-------------------------------------------------------------------|
 C|--3333-3333333-3330000-0000000-0008888-8888888-8887777-7777777-777-|
 G|--3333-3333333-3330000-0000000-0008888-8888888-8887777-7777777-777-|
 C|--3333-3333333-3330000-0000000-0008888-8888888-8887777-7777777-777-|




Solo

Guitar 1
 D|-------------------------------------------------------------------|
 A|---------8---------------------------------------------------------|
 F|-7br---7---7-------------------------------------------------------|
 C|--------------12br--10p9--10p-9------------------------------------|
 G|--------------------------------8~~~-8p5--7-8-10-8-7h8p7~~~-7h8/10-|
 C|-------------------------------------------------------------------|
                                           pm ...... 
 D|-----------------121415br--13p12h13----15-20br---15~~-13h15-----13-|
 A|-------------1315--------------------------------------------------|
 F|-------121415------------------------------------------------------|
 C|-121415------------------------------------------------------------|
 G|-------------------------------------------------------------------|
 C|-------------------------------------------------------------------|

 D|-22br--20-19-17------------------------17182022~201817151817--1715-|
 A|----------------18---------------171820---------------------18-----|
 F|-------------------17----17151719----------------------------------|
 C|-------------------------------------------------------------------|
 G|-------------------------------------------------------------------|
 C|-------------------------------------------------------------------|

 D|-------------15br---------------------------------|
 A|-181715151718-------------------------------------|
 F|--------------------------------------------------|
 C|--------------------------------------------------|
 G|--------------------------------------------------|
 C|--------------------------------------------------|
Related for The Remembrance Ballad tab
Advertisement will be closed in 10 seconds