Song name
# A B C D E F G H I J K L M N O P Q R S T U V W X Y Z

Atreyu - The Crimson tab

I found a way to play this in Standard
yeaaah

Intro Guitar One.
|------------------------------------------------------------------|
|--------------------1---------------------3-----4-----6---4h6-3---|
|-----0---2h3p2--0-----0--3-----2h3------3---3-----3---------------|
|---0---0----------0----0---0----------5--5----5-----5---5-------5-|
|------------------------------------6-----------------------------|
|--3--------------------------3------------------------------------|

Guitar One repeats intro half way through verse.

Verse Guitar Two.

|-------------------|
|-------------------|
|-------------------|
|--5555555555555555-|
|--5555555555555555-|
|--3333333333333333-|

"I feel it welling up inside, and Robert smith lied"

|----------------------------|
|----------------------------|
|----------------------------|
|--88888888-1010101010101010-|
|--66666666-8-8-8-8-8-8-8-8--|
|--66666666-8-8-8-8-8-8-8-8--|

"Boys do cry, and with-"

Repeat verse x4
|-------------------------------------------------------------------|
|-------------------------------------------------------------------|
|-------------------------------------------------------------------|
|--555--555---5---555--555---5---888--888---8---101010--101010---10-|
|--555--555---5---666--666---6---666--666---6---8-8-8---8-8-8----8--|
|--333--333---3---333--333---3---666--666---6---8-8-8---8-8-8----8--|

"One starts to change into, something the mirror doesnt recognise,
metamorphasise, the darkness has, been biding its time"

Let single chords ring.

|-----------------------------------------------------------------|
|-----------------------------------------------------------------|
|-----------------------------------------------------------------|
|--555xx555xxx5xxx555xx555xxx5xxx888xx888xxx8xxx101010xx101010xxx10
|--555xx555xxx5xxx666xx666xxx6xxx666xx666xxx6xxx8-8-8-xx8-8-8-xx-|x8
|--333xx333xxx3xxx333xx333xxx3xxx666xx666xxx6xxx8-8-8-xx8-8-8-xx-|x8

"To claim its latest victim, fresh meat for carnal desires, to become, what i became, i 
the sun for the last time"

Chorus
|------------------------------------------------|
|------------------------------------------------|
|---(x8)-----------(x8)-----------(x16)----------|
|--88888888-1010101010101010-5555555555555555----|   x2
|--88888888-8-8-8-8-8-8-8-8--5555555555555555----|
|--66666666-8-8-8-8-8-8-8-8--3333333333333333----|

"Will you still hold me, when you see what i have done,
will you still kiss me the same, when you taste my victims blood?"

|-------------------------------------------------------------|
|-------------------------------------------------------------|
|-------------------------------------------------------------|
|--88888888-1010101010101010-12121212121212121212121212121212-|
|--88888888-1010101010101010-12121212121212121212121212121212-|
|--66666666-8-8-8-8-8-8-8-8--10101010101010101010101010101010-|

"So crimson and red, i feel it flowing from your lips"

|----------------------------------------------------------|
|----------------------------------------------------------|
|---(x8)------------------(x24)----------------------------|
|-88888888-101010101010101010101010101010101010101010101010|
|-88888888-101010101010101010101010101010101010101010101010|
|-66666666-8-8-8-8-8-8-8-8-8-8-8-8-8-8-8-8-8-8-8-8-8-8-8-8-|

"Crimson and red, my heart is......"
Verse 2 Guitar 2
Play double speed, listen to record

|----------------------------------------------------------------|
|----------------------------------------------------------------|
|----------------------------------------------------------------|
|-5555555555-333-3-3-3-5555555555-555-5-5-5-8888888888-888-8-8-8-|
|-5555555555-333-3-3-3-6666666666-666-6-6-6-6666666666-666-6-6-6-|
|-3333333333-333-3-3-3-3333333333-333-3-3-3-6666666666-666-6-6-6-|

----------------------------------------------|
----------------------------------------------|
----------------------------------------------|
----------------------------------------------|  This bit is same rhythm as before
-10101010101010101010-101010-10-10-10---------|  just tab looks diffrent because of
-10101010101010101010-101010-10-10-10  the 10-|s
-8-8-8-8-8-8-8-8-8-8--8-8-8--8--8--8----------|

Guitar 1 (Guitar 2 plays verse part through once then guitar 1 comes in)

|------------1--------                  |------------------|
|---------------------                  |------------3b4b3-|
|--0-3-2h3p0--3-2h3p0-   x8 but fourth  |--0-3-2h3p0-------|
|---------------------      time goes   |------------------|
|---------------------                  |------------------|
|---------------------                  |------------------|

Chorus

not tabbed bridge
thats pretty much it apart from on last chorus theres a key change and it basically all 
goes up one fret.
there ya goeess (:
Tap to rate this tab
 
# A B C D E F G H I J K L M N O P Q R S T U V W X Y Z