Song name
# A B C D E F G H I J K L M N O P Q R S T U V W X Y Z

Atreyu - Tulips Are Better tab

Help us improve GuitareTab! Take a short survey!
Band:Atreyu
Song:Tulips Are Better
Tuning:(Low To High)C,G,C,F,A,D.
Key:~-Let Ring
     /,-Slide up or down.

Intro:(quiet at first)Both Guitars Clean.

D-------------------------------------------------|
A-------------------------------------------------|
F-------4-----------4-----------4----------4------|
C--2--2--2-2---2--2--2-2---2--2--2-2--2--2--2-2---|
G-3--3----3---3--3----3---0--0----3--0--0----3----|
C-------------------------------------------------|

Guitar Two:(under the above riff,listen for when,play softly)

D------------------------------------------|
A-----12--0------12--0-----12--0-----12--0-|
F-------11---------11--------11--------11--|
C---9----------9---------9---------9-------|
G-10---------10---------0---------0--------|
C------------------------------------------|

Intro:Heavy Section-Strum these chords with heavy distortion.


D-----|
A-0-0-|
F-4-4-|
C-2-2-|
G-3-0-|
C-----|

"Let me be captivated by your beauty"-Light Distortion.
D-----------------------------------------|
A-----------------------------------------|
F-4-x-5-x-4-x-5-x-4-5-4-x-5-x-4-x-5-x-4-5-|
C-2-x-2-x-2-x-2-x-2-2-2-x-2-x-2-x-2-x-2-2-|
G-3-x-3-x-3-x-3-x-3-3-0-x-0-x-0-x-0-x-0-0-|
C-----------------------------------------|

Heavy fill in this part:Heavy Distortion("fall to my broken knees")

D----------|
A----------|
F----------|
C-22-33-55-|
G-22-33-55-|
C-22-33-55-|

Chorus Part("was there something in your hair,and i couldnt really care..")

D----------------------------|
A----------------------------|
F----55555-----99-1010-1212--|
C-xx-xxxxx--xx-xx-x-x---x-x--|
G-xx-33333--xx-77-8-8---1010-|
C-xx--------xx---------------|

"care any less about you".. the descending octave part(first time)

D----------------|
A----------------|
F----------------|
C-1212-10-9-79/5-|
G--xxx--x-x-xx/x-|
C--1010-8-7-57/3-|
        *
second time stop on the octave with the asterisk.

Heavy distortion!!
                                Fill in
D-----------------|            D---------|
A-----------------|            A---------|
F-----------------|            F---------|
C-1-4-1-0-5-4-1-0-|            C-0-1-4-3-|
G-1-4-1-0-5-4-1-0-|            G-0-1-4-3-|
C-1-4-1-0-5-4-1-0-|            C-0-1-4-3-|
PM* * * * * * * *

Guitar 2:

D----------|
A----------|
F----------|
C-000-0000-|
G-000-0000-|
C-000-0000-|
PM*** ****

Fill before second chorus:

D-----------------------|
A-----------------------|
F-5-5-5-5--101010101010-|
C-x-x-x-x--xxxxxxxxxxxx-|
G-3-3-3-3--888888888888-|
C-----------------------|
let first octave ring.

Second Chorus:

D----------------------------------------|
A----------------------------------------|
F-----------777-999-1010101010-555555555-|
C-333333333-xxx-xxx-xxxxxxxxxx-xxxxxxxxx-|
G-333333333-555-777-8888888888-333333333-|
C-333333333------------------------------|

Fill at end of second chorus:

D----------------|
A----------------|
F----------------|
C-0-xxx-0-xxx-0~-|
G-0-xxx-0-xxx-0~-|
C-0-xxx-0-xxx-0~-|

Chord before phaser/drum build up:

D-----|      D--------|
A-----|      A--------|
F-----|      F--------|
C-10~-| then C---0~---|
G-8~--|      G---0~---|
C-8~--|      C---0~---|

Brief phaser interlude. I have no idea how this goes,try sliding up and down the
fretboard in time to the drums.

"just wither away"

Guitar One(or two) plays harmonics:

D------|
A-5*---|
F---5*-|
C------|
G------|
C------|

Under Guitar Two(or one) playing palm muted chords. I am not completely sure
about this part..

D-----|
A-----|
F-----|
C-4-0-|
G-2-0-|
C-2-0-|
  * *

Until the last outro 'chorus'.."just wither away"

Guitar One or Guitar Two

D-----------------| D--------------------| D-------------------|
A-----------------| A--------------------| A-------------------|
F-----------------| F--------------------| F-------------------|
C-3333333-0000000-| C-1212/999101010/555-| C-1010/121212/14/12-|
G-3333333-0000000-| G-x--x/xxxxxxxxx/xxx-| G--xxx/xxxxxx/xx/xx-|
C-3333333-0000000-| C-1012/777888888/333-| C--888/101010/12/10-|

Guitar one or two plays notes under the chords which i cant make out, if anyone can 
P.M me or comment the tab and put the correction in there.

Very last three chords: Outro,Just wither away screamed:


D----------|
A----------|
F----------|
C-3~-5~-7~-|
G-3~-5~-7~-|
C-3~-5~-7~-|
Related for Tulips Are Better tab