Song name
# A B C D E F G H I J K L M N O P Q R S T U V W X Y Z

Atreyu - Her Portrait In Black tab

Help us improve GuitareTab! Take a short survey!
Ateyu - Her Portrait In Black

Tab by: Reice Wood

Drop C Tuning

~ = let ring/vibrato
/ = slide up
\ = slide down
> = whammy effect
h = hammer-on
p = pull-off
* = harmonic  (Pinch Harmonic)
. = palm-mute (Palm Mute)
b = bend
r = return bend

I changed some things around from the other tab, because i think it sounded better like 
to me, Enjoy Playing.

Intro:

Intro:
|------------------------------------------------------------------|
|------------------------------------------------------------------|
|------------------------------------------------------------------|
|-(Feedback fades in~)---5*~~~~~~~~(more feedback)-----------------|
|------------------------------------------------------------------|
|------------------------------------------------------5/12//////--|

|-------------------------------------------|
|-------------------------------------------|
|-------------------------------------------|x2
|-------0----------0--------------7-0-------|
|----------8---------7-8-0--8-10------------|
|---0-0--------0-0--------------------------|
    . .        . .

|-------------------------------------------|
|-------------------------------------------|
|-------------------------------------------|
|-------5--8-------5-7-8-0--8-7-5-3---------|
|-------------------------------------------|
|---0-0--0------0-0-------------------------|
    . .  .      . .


|-------------------------------------------|
|-------------------------------------------|
|-------------------------------------------|
|--------3--7---------3-----2---------------|
|-------------------------------------------|
|---0-0---0-----0-0-0---0-0-----------------|
    . .   .     . . .  .  .


Guitar 1: Palm muted
|--------------------|
|--------------------|
|--------------------|x2
|--------------------|
|--------------------|
|--0-000-0--0-000-0--|
   . ... .  . ... .

Guitar 2:
|--------------------|----------------------|
|--------------------|----------------------|
|--------------------|----------------------|
|--0~~~----0-----0---|---3~~~--2~~~--(GT2)--|
|--0~~~------7-8-----|---5~~~--4~~~--(GT1)--|
|--0~~~--------------|----------------------|

Guitar 1: Palm Muted
|--------------------------------------------------------------------------|
|--------------------------------------------------------------------------|
|--------------------------------------------------------------------------|x2
|--------------------------------------------------------------------------|
|--------------------------------------------------------------------------|
|--0-000-0--0-000-0--(x4)--8-888-8-8-888-8-(x2)--5-555-5-5-555-5--(x2)-----|
   . ... .  . ... .        . ... . . ... . .     . ... . . ... .


Guitar 2:
|---------------------------------------------------------------------|
|---------------------------------------------------------------------|
|---------------------------------------------------------------------|x2
|---0-----0-------0------0-----------0-5--7--------0-5-7--------------|
|-----7 8-----------7-8-------4--------------8-----------8---7--------|
|---------------------------------------------------------------------|

Before Chorus:
|------------------------------------------------------|
|------------------------------------------------------|
|---------------------101010~--------12-12-12-12~------|
|--5~-5~-5~-5~5~------8-8-8~---------10-10-10-10~------|
|--5~-5~-5~-5~5~-x16--8-8-8~--x8-----10-10-10-10~--x8--|
|--5~-5~-5~-5~5~------8-8-8~---------10-10-10-10~------|


Chorus: Guitar 1
|----------------------------------------------------------------------|
|----------------------------------------------------------------------|
|----------------------------------------------------------------------|x4
|--8-8-8-8-8-8-8-8-8-8-8-8-8-8-8-8--0-0-0-0-0-0-0-0-0-0-0-0-0-0-0-0----|
|--8-8-8-8-8-8-8-8-8-8-8-8-8-8-8-8--0-0-0-0-0-0-0-0-0-0-0-0-0-0-0-0----|
|--8-8-8-8-8-8-8-8-8-8-8-8-8-8-8-8--0-0-0-0-0-0-0-0-0-0-0-0-0-0-0-0----|


Chorus: Guitar 2
|-------------------------------------------------------------------------|
|-------------------------------------------------------------------------|
|-/7-7-7-7-7-7-7-7-7-7-7-7-/9-9-9-9-/101010101010101010101010-/17-17-17-17|x2
|--x-x-x-x-x-x-x-x-x-x-x-x--x-x-x-x---x-x-x-x-x-x-x-x-x-x-x-x---x--x--x--x|
|-/5-5-5-5-5-5-5-5-5-5-5-5-/7-7-7-7--/8-8-8-8-8-8-8-8-8-8-8-8-/15-15-15-15|
|-------------------------------------------------------------------------|

|--------------------------------------------------------------------------|
|--------------------------------------------------------------------------|
|/7-7-7-7-7-7-7-7-/9-9-9-9-/12121212-\101010101010101010101010-/17-17-17-17|
|-x-x-x-x-x-x-x-x--x-x-x-x---x-x-x-x---x-x-x-x-x-x-x-x-x-x-x-x---x--x--x--x|
|/5-5-5-5-5-5-5-5-/7-7-7-7-/10101010--\8-8-8-8-8-8-8-8-8-8-8-8-/15-15-15-15|
|--------------------------------------------------------------------------|

|------------------------------------------------------------------------|
|------------------------------------------------------------------------|
|-/7-7-7-7-7-7-7-7-7-7-7-7-/9-9-9-9-/10101010101010101010101010101010----|
|--x-x-x-x-x-x-x-x-x-x-x-x--x-x-x-x---x-x-x-x-x-x-x-x-x-x-x-x-x-x-x-x----|
|-/5-5-5-5-5-5-5-5-5-5-5-5-/7-7-7-7--/8-8-8-8-8-8-8-8-8-8-8-8-8-8-8-8----|
|------------------------------------------------------------------------|


Then: Guitar 1&2
|---------------------------------------------------------------------------|
|---------------------------------------------------------------------------|
|---------------------------------------------------------------------------|
|-1-0~-4-1~-11-00~-3-0-1-3-1-1-0~-4-1~-11-00~-3-0-1-3-0-4-4~-x-4-1-xxxx-----|
|-1-0~-4-1~-11-00~-3-0-1-3-1-1-0~-4-1~-11-00~-3-0-1-3-0-4-4~-x-4-1-xxxx-5*--|
|-1-0~-4-1~-11-00~-3-0-1-3-1-1-0~-4-1~-11-00~-3-0-1-3-0-4-4~-x-4-1-xxxx-----|

|------------------------------------------------------------------------|
|------------------------------------------------------------------------|
|------------------------------------------------------------------------|
|-1-0~-4-1~-11-00~-3-0-1-3-1-1-0~-4-1~-11-00~-3-0-1-3-0-4-4~-4~--1~------|
|-1-0~-4-1~-11-00~-3-0-1-3-1-1-0~-4-1~-11-00~-3-0-1-3-0-4-4~-4~--1~------|
|-1-0~-4-1~-11-00~-3-0-1-3-1-1-0~-4-1~-11-00~-3-0-1-3-0-4-4~-4~--1~------|


|------------------------------------------------------------------------|
|------------------------------------------------------------------------|
|------------------------------------------------------------------------|
|-1-0--3-0-1-0~---1-0--3-0-1-0~--3-0-1-0~--4\\\--------------------------|
|-1-0--3-0-1-0~---1-0--3-0-1-0~--3-0-1-0~--4\\\--------------------------|
|-1-0--3-0-1-0~---1-0--3-0-1-0~--3-0-1-0~--4\\\--------------------------|
  . .  . . . .    . .  . . . .   . . . .

|-------------------------------------------------------|
|-------------------------------------------------------|
|-------------------------------------------------------|
|-1-0~-4-1~-11-00~-3-0-1-3-1-1-0~-4-1~-11-00~-3-0-1-3-0-|
|-1-0~-4-1~-11-00~-3-0-1-3-1-1-0~-4-1~-11-00~-3-0-1-3-0-|
|-1-0~-4-1~-11-00~-3-0-1-3-1-1-0~-4-1~-11-00~-3-0-1-3-0-|


|-----------------------------------------|
|-----------------------------------------|
|-----------------------------------------|
|-444~-444~-111~-111~-444~-444~-777~-777~-|
|-444~-444~-111~-111~-444~-444~-777~-777~-|
|-444~-444~-111~-111~-444~-444~-777~-777~-|


REPEAT CHORUS:

Solo: Guitar 2   >=Whammy effect
|->15->17->18-->13->17---15-13-15---13-11-13---15-13-15---13-10-13~~\----|
|------------------------------------------------------------------------|
|-------------Guitar3=---18-17-18---16-14-16---18-17-18---20-18-20~~\----|
|-----------------------(^harmonizing guitar-played on high e string^)---|
|------------------------------------------------------------------------|
|------------------------------------------------------------------------|

|->15--->17->18--->20--->21~~~~~~~~~~~~----------------------------|
|------------------------(^slight bend^)---------------------------|
|------------------------------------------------------------------|
|------------------------------------------------------------------|
|------------------------------------------------------------------|
|------------------------------------------------------------------|

Solo: Guitar 1
|-----------------------------------------------------------|
|-----------------------------------------------------------|
|-----------------------------------------------------------|
|----5----------1----------8----------3----------4----------|
|----5-(x32)----1-(x32)----8-(x32)----3-(x16)----4-(x16)----|
|----5----------1----------8----------3----------4----------|


Then: Both Guitars ("She's Bleeding Out")
|------------------|--------------------------------------------|
|------------------|--------------------------------------------|
|------------------|--------------------------------------------|
|-1-0~-4-1~-11-00~-|3-0-1-3-11-0~-4-1~-11-00~-----3-0-1-3-1-----|
|-1-0~-4-1~-11-00~-|3-0-1-3-11-0~-4-1~-11-00~(x3)-3-0-1-3-1-----|
|-1-0~-4-1~-11-00~-|3-0-1-3-11-0~-4-1~-11-00~-----3-0-1-3-1-----|


Interlude:
|-----------8------------------------------8---------------|
|-11-11-11-11-11---10-10-10-10---11-11-11-11-11------10~---|
|-10-10-10----10----7--7--7--7---10-10-10----10------7~----|
|--8--8--8-----8----7--7--7--7----8--8--8-----8-----7~-----|
|--------------------------------------------------0~------|
|-------------------------------------------------0~-------|


Then:
|------------------------------------------------------------------|
|------------------------------------------------------------------|
|---------------------------------5~--5~--5~--5~-------------------|
|-8~--8~--8~--8~--0~--0~--0~--0~--5~--5~--5~--5~--5~--5~--5~--5~---|
|-8~--8~--8~--8~--0~--0~--0~--0~--3~--3~--3~--3---5~--5~--5~--5~---|
|-8~--8~--8~--8~--0~--0~--0~--0~------------------5~--5~--5~--5~---|


REPEAT CHORUS: (x2)

End with:
|---------------|-------------------------------------------------|
|---------------|---10~~b~~~~r~~~~~~~~~~b~~~~~~~~~r~~~~~~~~~------|
|--7~~~~~~------|--(^^^^^--------with feedback----------^^^^)-----|
|--x------------|-------------------------------------------------|
|--5~~~~~~------|-------------------------------------------------|
|---------------|-------------------------------------------------|
Related for Her Portrait In Black tab