Song name
# A B C D E F G H I J K L M N O P Q R S T U V W X Y Z

Atreyu - My Fork In The Road Your Knife In My Back tab

 Band: Atreyu
 Song: My Fork In The Road ( Your Knife In My Back)
Album: A Death Grip On Yesterday
         Tabber: Dicer4   (Dereck)
          Email: dicer4@msn.com
release notes: OAAAKY! i looked at all the other tabs and the intros were right but 
were no acurrate full tabs, so i put the full tab, to be honest it sounds right to me but 
solo could be better, enjoyy, please rate honestly and leave comments. ill keep
you updated through out the song...

intro   guitar one
d|-----------------------------------------------7^----|
A|--------5^-----------8^--------5-6p5---8---6---------|
F|-----5------5---5---------5--------------------------|
C|-3-3--3---3---3---3-----3----3-------5---5---5-------|
G|-----------------------------------------------------|
C|-----------------------------------------------------|
pm   .  .   .   .   .     .    .       .   .   .
        guitar two
d|--------------|
A|--------------|
F|--------------|
C|-7-~----------|
G|-7-~----------|
C|-7-~----------|

        guitar one
d|-----------------------------------------------------------|
A|---------5^------------------------------------------------|
F|-----5--------5---5---4^--------4--5p4---7----5---4h5p4----|
C|-3-3---3----3---3---3----3--7--3-------3---3----3--------5-|
G|-----------------------------------------------------------|
C|-----------------------------------------------------------|
pm   .   .    .   .   .    .     .       .   .    .
        guitar two
d|--------------|
A|--------------|
F|--------------|
C|-3-~----------|
G|-3-~----------|
C|-3-~----------|

then after thats played twice, guitar two plays this threw the rest of the intro
       guitar two, ( gtr one countines intro)
d|---------------------------------------------------|
A|---------------------------------------------------|
F|----------------10101010-9999-5555-----------------|
C|-77777777777777-x-x-x-x--xxxx-xxxx-333333333333333-|
G|-77777777777777-8-8-8-8--7777-3333-333333333333333-|
C|-77777777777777--------------------333333333333333-|

d|-------------------------------------------------------|
A|-------------------------------------------------------|
F|----------------12121212-10101010-999-10-7777777777777-|
C|-77777777777777-x-x-x-x--x-x-x-x--xxx-x--xxxxxxxxxxxxx-|
G|-77777777777777-10101010-8-8-8-8--777-8--5555555555555-|
C|-77777777777777----------------------------------------|

   fill ( both gtr)
d|-----------------------|
A|-----------------------|
F|-----------------------|
C|---4--5---7-5--4h5p4---|
G|-33-33-333-3-33------5-|
C|-----------------------|
pm .. .. ... . ..

on to the rest of the song.

verse   Guitar one "So here we are again, the same fork in the road..."
d|-----------------------------------------------------------|
A|-----------------------------------------------------------|
F|-----9--9p5---------9--9p5---------9--9p5---------9--9p5---|
C|-----------------------------------------------------------|
G|-7--------------7--------------7--------------7------------|
C|-7-7---7----7---7-7--7-----7---7-7--7-----7---7-7---7---7--|
pm   .   .    .     .   .    .     .  .     .     .   .   .
       Guitar two
d|------------------------------------------------------------|
A|------------------------------------------------------------|
F|------------------------------------------------------------|
C|-7-7-7----------7-7-7----------7-7-7----------7-7-7---------|
G|-7-7-7----------7-7-7----------7-7-7----------7-7-7---------|
C|-7-7-7----------7-7-7----------7-7-7----------7-7-7---------|

       Guitar one " I hate you, you love me, this story is getting old"
d|--------------------------------------------------------------|
A|--------------------------------------------------------------|
F|-----5--5p4---------5--5p4---------5--5p4-----5p4-5h7-5p4-----|
C|----------------------------------------------------------5/7-|
G|-3--------------3--------------3------------------------------|
C|-3-3---3----3---3-3---3----3---3-3---3----3-------------------|
pm   .   .    .     .   .    .     .   .    .
    Guitar two
d|-----------------------------------------------------|
A|-----------------------------------------------------|
F|-----------------------------------------------------|
C|-3-3-3----------3-3-3-----------3-3-3----------3-3-3-|
G|-3-3-3----------3-3-3-----------3-3-3----------3-3-3-|
C|-3-3-3----------3-3-3-----------3-3-3----------3-3-3-|

       Guitar one "the days that i opened up, you shut me out for good"
d|-----------------------------------------------------------|
A|-----------------------------------------------------------|
F|-----9--9p5---------9--9p5---------9--9p5---------9--9p5---|
C|-----------------------------------------------------------|
G|-7--------------7--------------7--------------7------------|
C|-7-7---7----7---7-7--7-----7---7-7--7-----7---7-7---7---7--|
pm   .   .    .     .   .    .     .  .     .     .   .   .
       Guitar two
d|------------------------------------------------------------|
A|------------------------------------------------------------|
F|------------------------------------------------------------|
C|-7-7-7----------7-7-7----------7-7-7----------7-7-7---------|
G|-7-7-7--7-7-----7-7-7--7-7-----7-7-7--7-7-----7-7-7--7-7----|
C|-7-7-7--7-7-----7-7-7--7-7-----7-7-7--7-7-----7-7-7--7-7----|
pm        . .            . .            . .            . .
       Guitar one " forgive, forget? F__ you, you are a liar and a whore"
d|--------------------------------------------------------------|
A|--------------------------------------------------------------|
F|-----5--5p4---------5--5p4---------5--5p4-----5p4-5h7-5p4-----|
C|----------------------------------------------------------5/7-|
G|-3--------------3--------------3------------------------------|
C|-3-3---3----3---3-3---3----3---3-3---3----3-------------------|
pm   .   .    .     .   .    .     .   .    .
       Guitar two
d|------------------------------------------------------------|
A|------------------------------------------------------------|
F|------------------------------------------------------------|
C|-3-3-3----------3-3-3-----------3-3-3----------3-3-3--------|
G|-3-3-3--3-3-----3-3-3--3-3------3-3-3--3-3-----3-3-3--3-3---|
C|-3-3-3--3-3-----3-3-3--3-3------3-3-3--3-3-----3-3-3--3-3---|
pm        . .            . .             . .            . .

   heres the chourse  "so take what you want and leave "

    Choures   Guitar one
d|---------------------------------------------------------------|
A|---------------------------------------------------------------|
F|---------------------------------------------------------------|
C|--///7-~---///10--10-10h12p10-9----9h10p9-7-~--//5--555-//10-9-|
G|--------------------------------10-----------------------------|
C|---------------------------------------------------------------|

              Guitar two, (harder to here)
d|---------------------------------------------------------------|
A|---------------------------------------------------------------|
F|---------------------------------------------------------------|
C|-33333333333333333--777777-555555-333333333333333-00000000000--|
G|-33333333333333333--777777-555555-333333333333333-00000000000--|
C|-33333333333333333--777777-555555-333333333333333-00000000000--|

             heres the break down (same as intro both guitars)

       Breakdown  Both guitars " You are poison on mans lips
d|---------------------------------------------------|
A|---------------------------------------------------|
F|----------------10101010-9999-5555-----------------|
C|-77777777777777-x-x-x-x--xxxx-xxxx-333333333333333-|
G|-77777777777777-8-8-8-8--7777-3333-333333333333333-|
C|-77777777777777--------------------333333333333333-|

fill in breakdown (both guitars)

d|---------------------------------|
A|---------------------------------|
F|---------------------------------|
C|------4---5p4---7---5---4h5p4----|
G|--5-5---5-----5---5---5-------7--|
C|---------------------------------|
pm  . .   .     .   .   .

     both guitars "Come here boy, stand by me, look my way and have another"
d|-------------------------------------------------------|
A|-------------------------------------------------------|
F|----------------12121212-10101010-999-10-7777777777777-|
C|-77777777777777-x-x-x-x--x-x-x-x--xxx-x--xxxxxxxxxxxxx-|
G|-77777777777777-10101010-8-8-8-8--777-8--5555555555555-|
C|-77777777777777----------------------------------------|

  fill after breakdown " Drink!"
d|-----------------------------|
A|-----------------------------|
F|--5------7-------7-5-4-------|
C|----7777---8888--------8-7-5-|
G|-----------------------------|
C|-----------------------------|
pm    ....   ....  . . . . . .

 heres the interlude now!

  interlude  both guitars  "I shouldve got up and left you"
d|---------------------------------------------------|
A|---------------------------------------------------|
F|------9---9p5--7-5-4--------5-~--------2-~---------|
C|---------------------8-7-5--x-~--------x-~---------|
G|-7--------------------------3-~--------0-~---------|
C|-7-7----7------------------------------------------|
pm   .    .      . . . . . .

d|--------------------------------------------------------|
A|--------------------------------------------------------|
F|-----9---9p5---7-5-4-------------5---5p4----5p4-5h7--4--|
C|----------------------8-7-5-----------------------------|
G|-7---------------------------3--------------------------|
C|-7-7---7---------------------3-3---3--------------------|
pm   .   .       . . . . . . .   .   .
         heres the bridge!!
  Bridge Both guitars " And i will never be your lover again...."
d|-----------------------------------------------------------------|
A|-----------------------------------------------------------------|
F|-----------------------------------------------------------------|
C|-----------------------------------------------------------------|
G|-000-000-000-000-000-000-000-000-777-777-777-777-333-333-333-333-|
C|-000-000-000-000-000-000-000-000-777-777-777-777-333-333-333-333-|

replay choures, reply breakdown

SOOOLOOOOOO this isnt perfect, but if you figure out the timiong and play it with the 
it sounds pretty good) i broke it down into parts so you can get the timing for it

  solo  Guitar one     pt. 1
d|---------------------------------------------------------------|
A|---------------------------------------------------------------|
F|---------------------------------------------------------------|
C|-10p7-7--10p7-7-----7-10p7-----7-----10h12p9--9----------------|
G|-----------------10---------10---10-------------12-10----------|
C|-------------------------------------------------------12--10^-|
pm                                              . .  .   .
                       pt. 2
d|----------------------------------------------------------------------|
A|--------------------------------------10h13p10----12----------t13p10--|
F|-t14p10-t12p10-t13p10-t14-~--10h12p10----------12----10h12p10---------|
C|----------------------------------------------------------------------|
G|----------------------------------------------------------------------|
C|----------------------------------------------------------------------|

                                                    --------------------|
                                                    -t12p10---12--------|
                                                    --------12---14^----|
                                                    --------------------|
                                                    --------------------|
                                                    --------------------|

                  pt 3
d|-----------12h15p12----------12h15p12----------12h15p12--------12h15p12--|
A|--12h14p12----------12h14p12----------12h14p12---------12h14p12----------|
F|-------------------------------------------------------------------------|
C|-------------------------------------------------------------------------|
G|-------------------------------------------------------------------------|
C|-------------------------------------------------------------------------|

                                    -------------------12h15p12-15-15/17^--|
                                    -----------12h14p12--------------------|
                                    --12h13p12-----------------------------|
                                    12-------------------------------------|
                                     --------------------------------------|
                                     --------------------------------------|

                 pt4 (its gunne be harder to get the timing for this one but im sure yull get it)
d|-------------------------------------------------------------------------|
A|-------------------------------------------------------------------------|
F|-----------------------------------////15-14-12----------/21-19h21p19----|
C|-10h12p10--------------------------------------14-10-----------------21^-|
G|----------10h12p10----------7h9p7--------------------13------------------|
C|-------------------10h13p10----------------------------------------------|


       Guitar two (here comes the hard part!!!) lol
d|---------------------------------------------------------|
A|---------------------------------------------------------|
F|---------------------------------------------------------|
C|-777777777777777777-3333-55555555555555-0000000000000000-|
G|-777777777777777777-3333-55555555555555-0000000000000000-|
C|-777777777777777777-3333-55555555555555-0000000000000000-|


rrepeat breakdown, guitar one plays intro.

and thats my fork in the road!! enjoy..

h   Hammer on
p   Pull of
/   Slide up or down (witch ever is needed)
~   Let note ring    ( for how ever long needed)
^   Bend up and down
t   Tap note
.   Palm mute
Tap to rate this tab
# A B C D E F G H I J K L M N O P Q R S T U V W X Y Z