Song name
# A B C D E F G H I J K L M N O P Q R S T U V W X Y Z

Atreyu - My Fork In The Road Your Nife In My Back tab

e------------------------------------------------------------|
B---------------------------------------------------10b11r10-|
G-------7b8r7-------1012r10---7-0-8p7-10-0-8-00--------------|
D---8-0------8-0-8-0-------8-0-------8-----------------------|
A-6----------------------------------------------------------|
E------------------------------------------------------------|
    x          x   x         x  x        x   xx

e------------------------------------------------------|
B------------------------------------------------------|
G-------7b8r7------------------------------------------|
D---8-0------8-0-7-0-7b8r7-5-0-7-0-8p7-10-0-8-0-7h8p7--|
A-6--------------------------------------------------8-|
E------------------------------------------------------|
    x          x   x         x   x        x   x

e------------------------------------------------------------------------|
B------------------------------------------------------------------------|
G-----7b8r7--------------------------------------------------------------|
D--8-0-----8-0-7-0-7b8r7-5-0000-7-0000-8-0000-10-000000-9-000000-7h8p7---|
A-6--------------------------------------------------------------------8-|
E------------------------------------------------------------------------|
     x       x   x         xxxx   xxxx   xxxx    xxxxxx   xxxxxx

e---------------------------------------|
B---------------------------------------|
G---------------------------------------|
D---------------------------------------|
A-5---------------1---------------------|
E-5---------------1---------------------|
Tap to rate this tab
# A B C D E F G H I J K L M N O P Q R S T U V W X Y Z