Song name
# A B C D E F G H I J K L M N O P Q R S T U V W X Y Z

Atreyu - Our Sick Story Thus Far tab

#----------------------------------PLEASE NOTE---------------------------------#
#This file is the author's own work and represents their interpretation of the #
#song. You may only use this file for private study, scholarship, or research. #
#------------------------------------------------------------------------------#

OUR SICK STORY THUS FAR SOLO (MY VERSION)
As recorded by Atreyu (tabbed by Feilong)





 

 

Gtr I (C G C F A D) - 'Untitled'
Gtr II (C G C F A D) - 'Untitled'


  Q=140
 4/4
  Gtr I
  PM--|      PM--|      PM--------------|      PM--|         PM--------|
  |-3-|      |-3-|      |-------3-------|      |-3-|         |----3-----|
  E E E E Q. E E E E Q. E E E E E E E E E E Q. E E E E  Q.   E E E E E  E
|--------------------------------------------------------------------------|
|--------------------------------------------------------------------------|
|--------------------------------------------------------------------------|
|-----------------------------------------------------------10-8-7-8-7-----|
|-------3h5--------3h5--------------------7h8--------8h10--------------10--|
|-0-0-0------0-0-0------0-0-0-0-0-0-0-0-0------0-0-0-----------------------|
|
| Gtr II
| PM--|      PM--|      PM--------------|      PM--|         PM--------|
| |-3-|      |-3-|      |-------3-------|      |-3-|         |----3-----|
| E E E E Q. E E E E Q. E E E E E E E E E E Q. E E E E  Q.   E E E E E  E
|--------------------------------------------------------------------------|
|--------------------------------------------------------------------------|
|--------------------------------------------------------------------------|
|------------------------------------------------------------7-5-3-5-3-----|
|-------3h5--------3h5--------------------7h8--------8h10---------------7--|
|-0-0-0------0-0-0------0-0-0-0-0-0-0-0-0------0-0-0-----------------------|


 4/4
  Gtr I
  PM--|      PM--|      PM--------------|      PM--|         PM--------|
  |-3-|      |-3-|      |-------3-------|      |-3-|         |----3-----|
  E E E E Q. E E E E Q. E E E E E E E E E E Q. E E E E  Q.   E E E E E  E
|--------------------------------------------------------------------------|
|--------------------------------------------------------------------------|
|--------------------------------------------------------------------------|
|-----------------------------------------------------------10-8-7-8-7-----|
|-------3h5--------3h5--------------------7h8--------8h10--------------10--|
|-0-0-0------0-0-0------0-0-0-0-0-0-0-0-0------0-0-0-----------------------|
|
| Gtr II
| PM--|      PM--|      PM--------------|      PM--|         PM--------|
| |-3-|      |-3-|      |-------3-------|      |-3-|         |----3-----|
| E E E E Q. E E E E Q. E E E E E E E E E E Q. E E E E  Q.   E E E E E  E
|--------------------------------------------------------------------------|
|--------------------------------------------------------------------------|
|--------------------------------------------------------------------------|
|-------2h3--------2h3--------------------5-7--------7--8----7-5-3-5-3-----|
|-----------------------------------------------------------------------7--|
|-0-0-0------0-0-0------0-0-0-0-0-0-0-0-0------0-0-0-----------------------|


  Q=150
               ~~~
        |-3-|
   W    E E E  H. S
|-------------------|
|-------------------|
|-(5)b7-7-5-3-[6]-7-|
|-------------------|
|-------------------|
|-------------------|


   PM-------------|
   |----------------------------3----------------------------|
   E E E E E  E E  E E E E  E E  E  E E  E  E E  E  E  E  E  E
|-----------------------------------------------------------------|
|-----------------------------------------------------10-11-11----|
|-10-9-7-9-7----7-----------------------------9-10-12-------------|
|------------10---10-8-7-8-10---------8-10-12---------------------|
|-----------------------------8-10-12-----------------------------|
|-----------------------------------------------------------------|


   |-3--|      |-----3------|
   E  E E  H   E  E E  E E  E  H.
|-------------------8h10p8--------|
|-11p10S8h10--10h11--------10h11--|
|---------------------------------|
|---------------------------------|
|---------------------------------|
|---------------------------------|


  Q=120
   E  S  E  S  E  S  E  S  E  S  E  S  E  S  E  S
|----------------------------------------------------|
|-10-10-11-11-13-13-11-11-13-13-15-15-16-16-15-15----|
|-10-10-12-12-14-14-12-12-14-14-15-15-17-17-15-15----|
|----------------------------------------------------|
|----------------------------------------------------|
|----------------------------------------------------|


  Q=140
                  |-----------3-----------|
   H     Q   E.   E  E  E  E  E  E  E  E  E
|-15b16-16-(17)-----------------------------|
|----------------13-15-13----13-------------|
|-------------------------15----15-14-15-14-|
|-------------------------------------------|
|-------------------------------------------|
|-------------------------------------------|


          |---------------3----------------|
    E  E  E  E  E  E  E  E  E  E  E  E  E  E
|-----17-18p15----------15h20p15----------15----|
|-/18----------16----16----------16----16-------|
|-----------------15----------------15----------|
|-----------------------------------------------|
|-----------------------------------------------|
|-----------------------------------------------|


                                      Q=120
   |------3-------|      |---3----|
   E  E  E  E  E  E      E  E  E  Q    S  S  S  S  S  S  S  S  S  S  S  E
|-17p13----------13----/22p17-------|-------18-------17-------20-------18----|
|-------15----15--------------18----|----------------------------------------|
|----------14--------------------19-|-19-19----19-19----19-19----19-19-------|
|-----------------------------------|----------------------------------------|
|-----------------------------------|----------------------------------------|
|-----------------------------------|----------------------------------------|


   PM---------------------|                                       ~~
   |-----------3-----------|  |---------------3----------------|
   S  S  S  S  S  S  S  S  S  S  S  S  S  S  S  S  S  S  S  S  S  H
|-------------------------------------15-17-18----------17-18-20-22----|
|----------------------------15-17-18----------17-18-20----------------|
|-------------------14-15-17-------------------------------------------|
|----------14-15-17----------------------------------------------------|
|-13-15-17-------------------------------------------------------------|
|----------------------------------------------------------------------|




--------------------------------------------------------------------------------


Duration Legend
---------------
W - whole; H - half; Q - quarter; E - 8th; S - 16th; T - 32nd; X - 64th; a - acciaccatura
+ - note tied to previous; . - note dotted; .. - note double dotted
Uncapitalized letters represent notes that are staccato (1/2 duration)
Irregular groupings are notated above the duration line
Duration letters will always appear directly above the note/fret number it represents the
duration for.  Duration letters with no fret number below them represent rests.  Multi-
bar rests are notated in the form Wxn, where n is the number of bars to rest for.  Low
melody durations appear below the staff

Tablature Legend
----------------
 h   - hammer-on
 p   - pull-off
 b   - bend
 pb  - pre-bend
 r   - bend release (if no number after the r, then release immediately)
 /\  - slide into or out of (from/to "nowhere")
 s   - legato slide
 S   - shift slide
 - natural harmonic
[n]  - artificial harmonic
n(n) - tapped harmonic
 ~   - vibrato
 tr  - trill
 T   - tap
 TP  - trem. picking
 PM  - palm muting
\n/  - tremolo bar dip; n = amount to dip
 \n  - tremolo bar down
 n/  - tremolo bar up
/n\  - tremolo bar inverted dip
 =   - hold bend; also acts as connecting device for hammers/pulls
 <> - volume swell (louder/softer)
 x   - on rhythm slash represents muted slash
 o   - on rhythm slash represents single note slash

Misc Legend
-----------
 |  - bar
||  - double bar
||o - repeat start
o|| - repeat end
*|  - double bar (ending)
 :  - bar (freetime)
 $  - Segno
 &  - Coda
Tempo markers -  = BPM(8/16=s8/s16), where s8 = swing 8ths, s16 = swing 16ths

Tap to rate this tab
# A B C D E F G H I J K L M N O P Q R S T U V W X Y Z