Song name
# A B C D E F G H I J K L M N O P Q R S T U V W X Y Z

Atreyu - Hometown Revenge tab

Band- Atreyu
Song- Hometown Revenge

Intro

Guitar 2

D|-----------------------------------------------------------|
A|-----1-----------1-------------------6---------------------|
F|-------1------1----1---1-----55s2s5-----3h5p3h5------------|
C|3-3------1--1---1----1-------------------------------------|
G|---------------------------4-------------------------------|
D|-----------------------------------------------------------|
Verse

Guitar 1

D|-----------------------------------------------------------|
A|-----------------------------------------------------------|
F|-----------------------------------------------------------|
C|99999999-77777777-5-5-5555-55-5-55-------------------------|
G|77777777-55555555-3-3-3333-33-3-33-------------------------|
D|-----------------------------------------------------------|
P.M................

Guitar 2

D|-----------------------------------------------------------|
A|---------------------------6-------------------------------|
F|--------------------55s2s5---3h5p3h5-----------------------|
C|-----------------------------------------------------------|
G|------------------4----------------------------------------|
D|-----------------------------------------------------------|

Chorus

Both Guitars

D|-----------------------------------------------------------|
A|-----------------------------------------------------------|
F|-----------------------------------------------------------|
C|12-12------------------------------------------------------|
G|10-10-9-10-12--14-14-14s12-12-101010s12-12-----------------|
D|------7--8-10--12-12-12s10-10--8-8-8s10-10-----------------|

D|-----------------------------------------------------------|
A|-----------------------------------------------------------|
F|-----------------------------------------------------------|
C|12-12------------------------------------------------------|
G|10-10-9-10-12--10101010101010101010101010101010------------|
D|------7--8-10---8-8-8-8-8-8-8-8-8-8-8-8-8-8-8-8------------|
               P.M...............................

Right after that is kinda like the intro only distorted and with
a little variation.  It goes...

D|-----------------------------------------------------------|
A|--1-----1--------------------------------------------------|
F|-1-1---1-1----55H6H5-5--5-5s3------------------------------|
C|3---1-1---1------------------------------------------------|
G|------------4----------------------------------------------|
D|-----------------------------------------------------------|

Then back to Chorus...

D|-----------------------------------------------------------|
A|-----------------------------------------------------------|
F|-----------------------------------------------------------|
C|12-12------------------------------------------------------|
G|10-10-9-10-12--14-14-14s12-12-101010s12-12-----------------|
D|------7--8-10--12-12-12s10-10--8-8-8s10-10-----------------|

D|-----------------------------------------------------------|
A|-----------------------------------------------------------|
F|-----------------------------------------------------------|
C|12-12------------------------------------------------------|
G|10-10-9-10-12--10101010101010101010101010101010------------|
D|------7--8-10---8-8-8-8-8-8-8-8-8-8-8-8-8-8-8-8------------|
               P.M...............................
Tap to rate this tab
# A B C D E F G H I J K L M N O P Q R S T U V W X Y Z