Song name
# A B C D E F G H I J K L M N O P Q R S T U V W X Y Z

Atreyu - Your Private War tab

Title:Your Private War
Artist:Atreyu
Tuning:Drop C

intro
guitar I
d|------------------------------------------------------|
a|------------------------------------------------------|
f|----------5-7----------5-7----------5-10-10-10-10-10-7|
c|0---------x-x----------x-x----------x-x--x--x--x--x--x|
g|0-0-0-0-0-3-5--0-0-0-0-3-5--0-0-0-0-3-8--8--8--8--8--5|
C|0-0-0-0-0------0-0-0-0------0-0-0-0-------------------|
    . . . .      . . . .      . . . .
     
guitar II
d|------------------------------------------------------|
a|------------------------------------------------------|
f|----------7-10---------7-10---------7-14-14-14-12-10-8|
c|0---------x-x----------x-x----------x-x--x--x--x--x--x|
g|0-0-0-0-0-5-8--0-0-0-0-5-8--0-0-0-0-5-12-12-12-10-8--6|
C|0-0-0-0-0------0-0-0-0------0-0-0-0-------------------|
    . . . .      . . . .      . . . .    

guitar I & II
d|------------------------|
a|------------------------|
f|---5-7-7/--------5-7-7/-|
c|0--x-x-x/-----0--x-x-x/-|
g|0--3-5-5/-----0--3-5-5/-|
C|0-------------0---------|

verse I
guitar I & II
d|------------------------------------------------|
a|------------------------------------------------|
f|5-7-7/-----------------------------------5-7-7/-|4x
c|x-x-x/-----------------------------------x-x-x/-|
g|3-5-5/-0-0-0-0---0-0-0-0---0-0-0-0---0-0-3-5-5/-|
C|-------0-0-0-0---0-0-0-0---0-0-0-0---0-0--------|
         . . . .   . . . .   . . . .   . .

chorus
guitar I
d|-----------------------------------------------|
a|-----------------------------------------------|
f|14-14-14-14-12-12-17-17-14-14-14-14-12-12-17-17|
c|x--x--x--x--x--x--x--x--x--x--x--x--x--x--x--x-|
g|12-12-12-12-10-10-15-15-12-12-12-12-10-10-15-15|
C|-----------------------------------------------|

guitar II
d|-----------------------------------------------|
a|-----------------------------------------------|
f|-----------------------------------------------|
c|7--7--7--7--7--7--7--7--7--7--7--7--7--7--7--7-|
g|7--7--7--7--7--7--7--7--7--7--7--7--7--7--7--7-|
C|7--7--7--7--7--7--7--7--7--7--7--7--7--7--7--7-|

guitar I
d|-----------------------------------------------|
a|-----------------------------------------------|
f|14-14-14-14-12-12-17-17-14-14-14-14-12-12-17-17|
c|x--x--x--x--x--x--x--x--x--x--x--x--x--x--x--x-|
g|12-12-12-12-10-10-15-15-12-12-12-12-10-10-15-15|
C|-----------------------------------------------|

guitar II
d|-----------------------------------------------|
a|-----------------------------------------------|
f|-----------------------------------------------|
c|5--5--5--5--5--5--5--5--4--4--4--4--4--4--4--4-|
g|5--5--5--5--5--5--5--5--4--4--4--4--4--4--4--4-|
C|5--5--5--5--5--5--5--5--4--4--4--4--4--4--4--4-|

verse II
guitar I & II
d|-----------------------------------------------------|
a|-----------------------------------------------------|
f|5-7-7/---------------------------------------------7/|4x
c|x-x-x/---------------------------------------------x/|
g|3-5-5/------------------0-0------------------------5/|
C|--------0h7-0h6-0h4-0h2-0-0--2\12--0h7-0h6-0h4-0h2---|
                          . .

bridge?
guitar I
d|--------------------------------|
a|--------------------------------|
f|--------------------------------|
c|--------------------------------|
g|0-0---------------0--3--8--5*---|
C|0-0-0h7-0h6-0h4h6---------------|
  . .


guitar I 
d|-------------------------------------------------------| 
a|-------------------------------------------------------| 
f|-------------------------------------------------------| 
c|------------------------3------------------------------| 
g|0-0---------------3-5-3---5-0-0---------------3-5-8--5*|
C|0-0-0h7-0h6-0h4h6-----------0-0-0h7-0h6-0h4h6----------|
  . .                         . .

guitar II
d|-------------------------------------------------------|
a|-------------------------------------------------------|
f|7-7-7-7-7-7-7-6-6-6-6-6-6-6-5-5-5-5-5-5-5-4-4-4-4-4-4-4|(guitar II comes
c|x-x-x-x-x-x-x-x-x-x-x-x-x-x-x-x-x-x-x-x-x-x-x-x-x-x-x-x|in after guitar I
g|5-5-5-5-5-5-5-4-4-4-4-4-4-4-3-3-3-3-3-3-3-2-2-2-2-2-2-2|plays 2x)
C|-------------------------------------------------------|

outro 
guitar I & II
d|---------------------------------------------------------------|
a|---------------------------------------------------------------|
f|---------------------------------------------------------------|
c|------------------------3-------------------------3-------7-6-3|
g|0-0---------------3-5-3---3-0-0---------------3-5---5-----7-6-3|
C|0-0-0h7-0h6-0h4h6-----------0-0-0h7-0h6-0h4h6-------------7-6-3|
  . .                         . .


questions or comments please e-mail at x-X_vengeance_X-x@hotmail.com
Tap to rate this tab
# A B C D E F G H I J K L M N O P Q R S T U V W X Y Z